999
DXF file: bg_BG-E1531-400BD-256-SS.dxf
999
Pro/ENGINEER 2020414 by Parametric Technology Corporation
  0
SECTION
  2
HEADER
  9
$ACADVER
  1
AC1032
  9
$DWGCODEPAGE
  3
ANSI_1252
  9
$EXTMAX
 10
22.0
 20
17.0
 30
0.0
  9
$EXTMIN
 10
0.0
 20
0.0
 30
0.0
  9
$LIMMIN
 10
0.0
 20
0.0
  9
$LIMMAX
 10
22.0
 20
17.0
  9
$VIEWCTR
 10
11.0
 20
8.5
  9
$VIEWSIZE
 40
17.0
  9
$CLAYER
  8
0
  9
$LTSCALE
 40
1.21
  9
$CELTYPE
  6
BYLAYER
  9
$DIMSCALE
 40
1.0
  9
$DIMASZ
 40
0.1875
  9
$DIMEXO
 40
0.0625
  9
$DIMDLI
 40
0.836
  9
$DIMEXE
 40
0.125
  9
$DIMCEN
 40
0.198
  9
$DIMLFAC
 40
9.0
  9
$DIMBLK
  1
_CLOSED
  9
$DIMALT
 70
0
  9
$DIMALTF
 40
25.4
  9
$DIMTXT
 40
0.15625
  9
$DIMTOL
 70
0
  9
$DIMLIM
 70
0
  9
$DIMTFAC
 40
1.0
  9
$DIMGAP
 40
0.09
  9
$DIMDSEP
 70
46
  9
$AUNITS
 70
0
  9
$PDMODE
 70
3
  9
$PDSIZE
 40
0.3125
  9
$HANDSEED
  5
3F1
  9
$TILEMODE
 70
1
  9
$MEASUREMENT
 70
0
  9
$INSUNITS
 70
1
  0
ENDSEC
  0
SECTION
  2
CLASSES
  0
CLASS
  1
ACDBDICTIONARYWDFLT
  2
AcDbDictionaryWithDefault
  3
AutoCAD 2000
 90
0
 91
1
280
0
281
0
  0
CLASS
  1
ACDBPLACEHOLDER
  2
AcDbPlaceHolder
  3
AutoCAD 2000
 90
0
 91
1
280
0
281
0
  0
CLASS
  1
LAYOUT
  2
AcDbLayout
  3
AutoCAD 2000
 90
0
 91
0
280
0
281
0
  0
ENDSEC
  0
SECTION
  2
TABLES
  0
TABLE
  2
VPORT
  5
8
100
AcDbSymbolTable
 70
2
  0
VPORT
  5
1F4
100
AcDbSymbolTableRecord
100
AcDbViewportTableRecord
  2
*ACTIVE
 70
0
 10
0.0
 20
0.0
 11
1.0
 21
1.0
 12
11.0
 22
8.5
 13
0.0
 23
0.0
 14
1.0
 24
1.0
 15
0.0
 25
0.0
 16
0.0
 26
0.0
 36
1.0
 17
0.0
 27
0.0
 37
0.0
 40
17.0
 41
1.2941176471
 42
50.0
 43
0.0
 44
0.0
 50
0.0
 51
0.0
 71
0
 72
100
 73
1
 74
1
 75
0
 76
0
 77
0
 78
0
  0
ENDTAB
  0
TABLE
  2
LTYPE
  5
5
100
AcDbSymbolTable
 70
6
  0
LTYPE
  5
14
100
AcDbSymbolTableRecord
100
AcDbLinetypeTableRecord
  2
BYBLOCK
 70
0
  3

 72
65
 73
0
 40
0.0
  0
LTYPE
  5
15
100
AcDbSymbolTableRecord
100
AcDbLinetypeTableRecord
  2
BYLAYER
 70
0
  3

 72
65
 73
0
 40
0.0
  0
LTYPE
  5
16
100
AcDbSymbolTableRecord
100
AcDbLinetypeTableRecord
  2
CONTINUOUS
 70
64
  3
Solid line
 72
65
 73
0
 40
0.0
  0
LTYPE
  5
1F5
100
AcDbSymbolTableRecord
100
AcDbLinetypeTableRecord
  2
CENTER
 70
64
  3
____ _ ____ _ ____ _ ____ _ ____ _ ____ _ ____
 72
65
 73
4
 40
0.6
 49
0.375
 74
0
 49
-0.075
 74
0
 49
0.075
 74
0
 49
-0.075
 74
0
  0
LTYPE
  5
1F6
100
AcDbSymbolTableRecord
100
AcDbLinetypeTableRecord
  2
HIDDEN
 70
64
  3
- - - - - - - - - - - - - - - - - - - -
 72
65
 73
2
 40
0.2
 49
0.1
 74
0
 49
-0.1
 74
0
  0
LTYPE
  5
1F7
100
AcDbSymbolTableRecord
100
AcDbLinetypeTableRecord
  2
PHANTOM
 70
64
  3
_____ _ _ _____ _ _ _____ _ _ _____
 72
65
 73
6
 40
0.8
 49
0.45
 74
0
 49
-0.05
 74
0
 49
0.1
 74
0
 49
-0.05
 74
0
 49
0.1
 74
0
 49
-0.05
 74
0
  0
LTYPE
  5
1F8
100
AcDbSymbolTableRecord
100
AcDbLinetypeTableRecord
  2
DOT
 70
64
  3
. . . . . . . . . . . . . . . . . . . .
 72
65
 73
2
 40
0.2
 49
0.1
 74
0
 49
-0.1
 74
0
  0
LTYPE
  5
1F9
100
AcDbSymbolTableRecord
100
AcDbLinetypeTableRecord
  2
DASHED
 70
64
  3
- - - - - - - - - - - - - - - - - - - -
 72
65
 73
2
 40
0.2
 49
0.1
 74
0
 49
-0.1
 74
0
  0
ENDTAB
  0
TABLE
  2
LAYER
  5
2
100
AcDbSymbolTable
 70
36
  0
LAYER
  5
10
100
AcDbSymbolTableRecord
100
AcDbLayerTableRecord
  2
0
 70
0
 62
7
  6
CONTINUOUS
370
-3
390
F
  0
LAYER
  5
1FA
100
AcDbSymbolTableRecord
100
AcDbLayerTableRecord
  2
DEFAULT_1
 70
0
 62
7
  6
CENTER
370
-3
390
F
  0
LAYER
  5
1FB
100
AcDbSymbolTableRecord
100
AcDbLayerTableRecord
  2
DEFAULT_2
 70
0
 62
7
  6
HIDDEN
370
-3
390
F
  0
LAYER
  5
1FC
100
AcDbSymbolTableRecord
100
AcDbLayerTableRecord
  2
DEFAULT_3
 70
0
 62
7
  6
PHANTOM
370
-3
390
F
  0
LAYER
  5
1FD
100
AcDbSymbolTableRecord
100
AcDbLayerTableRecord
  2
01_ALL_DTM_PLN
 70
0
 62
7
  6
CONTINUOUS
370
-3
390
F
  0
LAYER
  5
1FE
100
AcDbSymbolTableRecord
100
AcDbLayerTableRecord
  2
01__ASM_ALL_DTM_PLN
 70
0
 62
7
  6
CONTINUOUS
370
-3
390
F
  0
LAYER
  5
1FF
100
AcDbSymbolTableRecord
100
AcDbLayerTableRecord
  2
01__ASM_DEF_DTM_PLN
 70
0
 62
7
  6
CONTINUOUS
370
-3
390
F
  0
LAYER
  5
200
100
AcDbSymbolTableRecord
100
AcDbLayerTableRecord
  2
01___PRT_ALL_DTM_PLN
 70
0
 62
7
  6
CONTINUOUS
370
-3
390
F
  0
LAYER
  5
201
100
AcDbSymbolTableRecord
100
AcDbLayerTableRecord
  2
01___PRT_DEF_DTM_PLN
 70
0
 62
7
  6
CONTINUOUS
370
-3
390
F
  0
LAYER
  5
202
100
AcDbSymbolTableRecord
100
AcDbLayerTableRecord
  2
02_ALL_AXES
 70
0
 62
7
  6
CONTINUOUS
370
-3
390
F
  0
LAYER
  5
203
100
AcDbSymbolTableRecord
100
AcDbLayerTableRecord
  2
02__ASM_ALL_AXES
 70
0
 62
7
  6
CONTINUOUS
370
-3
390
F
  0
LAYER
  5
204
100
AcDbSymbolTableRecord
100
AcDbLayerTableRecord
  2
02___PRT_ALL_AXES
 70
0
 62
7
  6
CONTINUOUS
370
-3
390
F
  0
LAYER
  5
205
100
AcDbSymbolTableRecord
100
AcDbLayerTableRecord
  2
03_ALL_CURVES
 70
0
 62
7
  6
CONTINUOUS
370
-3
390
F
  0
LAYER
  5
206
100
AcDbSymbolTableRecord
100
AcDbLayerTableRecord
  2
03__ASM_ALL_CURVES
 70
0
 62
7
  6
CONTINUOUS
370
-3
390
F
  0
LAYER
  5
207
100
AcDbSymbolTableRecord
100
AcDbLayerTableRecord
  2
03___PRT_ALL_CURVES
 70
0
 62
7
  6
CONTINUOUS
370
-3
390
F
  0
LAYER
  5
208
100
AcDbSymbolTableRecord
100
AcDbLayerTableRecord
  2
04_ALL_DTM_PNT
 70
0
 62
7
  6
CONTINUOUS
370
-3
390
F
  0
LAYER
  5
209
100
AcDbSymbolTableRecord
100
AcDbLayerTableRecord
  2
04__ASM_ALL_DTM_PNT
 70
0
 62
7
  6
CONTINUOUS
370
-3
390
F
  0
LAYER
  5
20A
100
AcDbSymbolTableRecord
100
AcDbLayerTableRecord
  2
04___PRT_ALL_DTM_PNT
 70
0
 62
7
  6
CONTINUOUS
370
-3
390
F
  0
LAYER
  5
20B
100
AcDbSymbolTableRecord
100
AcDbLayerTableRecord
  2
05_ALL_DTM_CSYS
 70
0
 62
7
  6
CONTINUOUS
370
-3
390
F
  0
LAYER
  5
20C
100
AcDbSymbolTableRecord
100
AcDbLayerTableRecord
  2
05__ASM_ALL_DTM_CSYS
 70
0
 62
7
  6
CONTINUOUS
370
-3
390
F
  0
LAYER
  5
20D
100
AcDbSymbolTableRecord
100
AcDbLayerTableRecord
  2
05__ASM_DEF_DTM_CSYS
 70
0
 62
7
  6
CONTINUOUS
370
-3
390
F
  0
LAYER
  5
20E
100
AcDbSymbolTableRecord
100
AcDbLayerTableRecord
  2
05___PRT_ALL_DTM_CSYS
 70
0
 62
7
  6
CONTINUOUS
370
-3
390
F
  0
LAYER
  5
20F
100
AcDbSymbolTableRecord
100
AcDbLayerTableRecord
  2
05___PRT_DEF_DTM_CSYS
 70
0
 62
7
  6
CONTINUOUS
370
-3
390
F
  0
LAYER
  5
210
100
AcDbSymbolTableRecord
100
AcDbLayerTableRecord
  2
06_ALL_SURFS
 70
0
 62
7
  6
CONTINUOUS
370
-3
390
F
  0
LAYER
  5
211
100
AcDbSymbolTableRecord
100
AcDbLayerTableRecord
  2
06__ASM_ALL_SURFS
 70
0
 62
7
  6
CONTINUOUS
370
-3
390
F
  0
LAYER
  5
212
100
AcDbSymbolTableRecord
100
AcDbLayerTableRecord
  2
06___PRT_ALL_SURFS
 70
0
 62
7
  6
CONTINUOUS
370
-3
390
F
  0
LAYER
  5
213
100
AcDbSymbolTableRecord
100
AcDbLayerTableRecord
  2
07__ASM_ALL_SKELETONS
 70
0
 62
7
  6
CONTINUOUS
370
-3
390
F
  0
LAYER
  5
214
100
AcDbSymbolTableRecord
100
AcDbLayerTableRecord
  2
DTM
 70
0
 62
7
  6
CONTINUOUS
370
-3
390
F
  0
LAYER
  5
215
100
AcDbSymbolTableRecord
100
AcDbLayerTableRecord
  2
HIDE
 70
0
 62
7
  6
CONTINUOUS
370
-3
390
F
  0
ENDTAB
  0
TABLE
  2
STYLE
  5
3
100
AcDbSymbolTable
 70
1
  0
STYLE
  5
11
100
AcDbSymbolTableRecord
100
AcDbTextStyleTableRecord
  2
STANDARD
 70
0
 40
0.0
 41
0.8
 50
0.0
 71
0
 42
0.2
  3
SIMPLEX.SHX
  4

  0
STYLE
  5
216
100
AcDbSymbolTableRecord
100
AcDbTextStyleTableRecord
  2
TEXTSTYLE_1
 70
0
 40
0.0
 41
0.8
 50
0.0
 71
0
 42
0.2
  3
gdt
  4

  0
ENDTAB
  0
TABLE
  2
VIEW
  5
6
100
AcDbSymbolTable
 70
0
  0
ENDTAB
  0
TABLE
  2
UCS
  5
7
100
AcDbSymbolTable
 70
0
  0
ENDTAB
  0
TABLE
  2
APPID
  5
9
100
AcDbSymbolTable
 70
1
  0
APPID
  5
217
100
AcDbSymbolTableRecord
100
AcDbRegAppTableRecord
  2
ACAD
 70
0
  0
ENDTAB
  0
TABLE
  2
BLOCK_RECORD
  5
1
100
AcDbSymbolTable
 70
0
  0
BLOCK_RECORD
  5
218
100
AcDbSymbolTableRecord
100
AcDbBlockTableRecord
  2
*Model_Space
  0
BLOCK_RECORD
  5
219
100
AcDbSymbolTableRecord
100
AcDbBlockTableRecord
  2
*Paper_Space
  0
BLOCK_RECORD
  5
21A
100
AcDbSymbolTableRecord
100
AcDbBlockTableRecord
  2
_CLOSED
  0
ENDTAB
  0
TABLE
  2
DIMSTYLE
  5
A
100
AcDbSymbolTable
 70
1
100
AcDbDimStyleTable
 71
0
  0
DIMSTYLE
105
21B
100
AcDbSymbolTableRecord
100
AcDbDimStyleTableRecord
  2
STANDARD
 70
0
  3

  4

 40
1.0
 41
0.1875
 42
0.0625
 43
0.38
 44
0.125
 45
0.0
 46
0.0
 47
0.0001
 48
0.0001
140
0.15625
141
0.09
142
0.0
143
25.4
144
1.0
145
0.0
146
1.0
147
0.09
 71
0
 72
0
 73
1
 74
1
 75
0
 76
0
 77
0
 78
4
 79
1
170
0
171
3
172
0
173
0
174
0
175
0
176
0
177
0
178
0
270
2
179
4
271
4
272
4
273
2
274
2
275
0
280
0
281
0
282
0
283
1
284
4
285
0
286
0
287
3
288
0
340
11
278
46
341
21A
342
21A
343
21A
344
21A
  0
ENDTAB
  0
ENDSEC
  0
SECTION
  2
BLOCKS
  0
BLOCK
  5
20
100
AcDbEntity
  8
0
100
AcDbBlockBegin
  2
*Model_Space
 70
0
 10
0.0
 20
0.0
 30
0.0
  3
*Model_Space
  1

  0
ENDBLK
  5
21
100
AcDbEntity
  8
0
100
AcDbBlockEnd
  0
BLOCK
  5
1C
100
AcDbEntity
  8
0
100
AcDbBlockBegin
  2
*Paper_Space
 70
0
 10
0.0
 20
0.0
 30
0.0
  3
*Paper_Space
  1

  0
ENDBLK
  5
1D
100
AcDbEntity
  8
0
100
AcDbBlockEnd
  0
BLOCK
  5
21C
100
AcDbEntity
  8
0
100
AcDbBlockBegin
  2
_CLOSED
 70
64
 10
0.0
 20
0.0
  3
_CLOSED
  1

  0
LINE
  5
21D
100
AcDbEntity
  8
0
  6
BYBLOCK
 62
0
100
AcDbLine
 10
0.0
 20
0.0
 11
-1.0
 21
0.1666666667
  0
LINE
  5
21E
100
AcDbEntity
  8
0
  6
BYBLOCK
 62
0
100
AcDbLine
 10
-1.0
 20
0.1666666667
 11
-1.0
 21
-0.1666666667
  0
LINE
  5
21F
100
AcDbEntity
  8
0
  6
BYBLOCK
 62
0
100
AcDbLine
 10
-1.0
 20
-0.1666666667
 11
0.0
 21
0.0
  0
LINE
  5
220
100
AcDbEntity
  8
0
  6
BYBLOCK
 62
0
100
AcDbLine
 10
-1.0
 20
0.0
 11
0.0
 21
0.0
  0
ENDBLK
  5
221
100
AcDbEntity
  8
0
  6
BYBLOCK
 62
0
100
AcDbBlockEnd
  0
ENDSEC
  0
SECTION
  2
ENTITIES
  0
LINE
  5
222
100
AcDbEntity
  8
0
100
AcDbLine
 62
7
  6
BYLAYER
 10
0.0
 20
0.0
 11
0.0
 21
17.0
  0
LINE
  5
223
100
AcDbEntity
  8
0
100
AcDbLine
 62
7
  6
BYLAYER
 10
0.0
 20
0.0
 11
22.0
 21
0.0
  0
LINE
  5
224
100
AcDbEntity
  8
0
100
AcDbLine
 62
7
  6
BYLAYER
 10
0.0
 20
17.0
 11
22.0
 21
17.0
  0
LINE
  5
225
100
AcDbEntity
  8
0
100
AcDbLine
 62
7
  6
BYLAYER
 10
22.0
 20
0.0
 11
22.0
 21
17.0
  0
LINE
  5
226
100
AcDbEntity
  8
0
100
AcDbLine
 62
7
  6
BYLAYER
 10
3.6388888889
 20
3.6345405556
 11
3.6388888889
 21
4.9366238889
  0
LINE
  5
227
100
AcDbEntity
  8
0
100
AcDbLine
 62
7
  6
BYLAYER
 10
3.7111111111
 20
3.6189155556
 11
3.7111111111
 21
5.0494711111
  0
LINE
  5
228
100
AcDbEntity
  8
0
100
AcDbLine
 62
7
  6
BYLAYER
 10
4.3194444444
 20
3.6325645335
 11
4.3194444444
 21
3.5911377778
  0
LINE
  5
229
100
AcDbEntity
  8
0
100
AcDbLine
 62
7
  6
BYLAYER
 10
7.1155658528
 20
3.8586774574
 11
7.25
 21
3.8946989786
  0
LINE
  5
22A
100
AcDbEntity
  8
0
100
AcDbLine
 62
7
  6
BYLAYER
 10
4.8611111111
 20
4.4687510798
 11
4.8611111111
 21
4.1024133647
  0
LINE
  5
22B
100
AcDbEntity
  8
0
100
AcDbLine
 62
7
  6
BYLAYER
 10
4.875
 20
4.1466933333
 11
4.875
 21
4.4244711111
  0
LINE
  5
22C
100
AcDbEntity
  8
0
100
AcDbLine
 62
7
  6
BYLAYER
 10
4.3194444444
 20
3.5911377778
 11
5.7083333333
 21
3.5911377778
  0
LINE
  5
22D
100
AcDbEntity
  8
0
100
AcDbLine
 62
7
  6
BYLAYER
 10
4.3194444444
 20
3.6122488889
 11
5.7083333333
 21
3.6122488889
  0
LINE
  5
22E
100
AcDbEntity
  8
0
100
AcDbLine
 62
7
  6
BYLAYER
 10
3.6411314148
 20
3.6189155556
 11
4.3194444444
 21
3.6189155556
  0
LINE
  5
22F
100
AcDbEntity
  8
0
100
AcDbLine
 62
7
  6
BYLAYER
 10
5.7083333333
 20
3.6189155556
 11
6.0416666667
 21
3.6189155556
  0
LINE
  5
230
100
AcDbEntity
  8
0
100
AcDbLine
 62
7
  6
BYLAYER
 10
4.3194444444
 20
3.6325645335
 11
5.7083333333
 21
3.6325645335
  0
LINE
  5
231
100
AcDbEntity
  8
0
100
AcDbLine
 62
7
  6
BYLAYER
 10
7.3611111111
 20
3.7300266667
 11
7.25
 21
3.7300266667
  0
LINE
  5
232
100
AcDbEntity
  8
0
100
AcDbLine
 62
7
  6
BYLAYER
 10
6.5937777758
 20
3.6050266667
 11
6.0416666667
 21
3.6779433333
  0
LINE
  5
233
100
AcDbEntity
  8
0
100
AcDbLine
 62
7
  6
BYLAYER
 10
5.1527777778
 20
4.4244711111
 11
5.1527777778
 21
4.1466933333
  0
LINE
  5
234
100
AcDbEntity
  8
0
100
AcDbLine
 62
7
  6
BYLAYER
 10
5.1666666667
 20
4.4687510798
 11
5.1666666667
 21
4.1024133647
  0
LINE
  5
235
100
AcDbEntity
  8
0
100
AcDbLine
 62
7
  6
BYLAYER
 10
6.1106805553
 20
3.9453044444
 11
6.5247638871
 21
3.9453044444
  0
LINE
  5
236
100
AcDbEntity
  8
0
100
AcDbLine
 62
7
  6
BYLAYER
 10
4.8611111111
 20
4.1024133647
 11
5.1666666667
 21
4.1024133647
  0
LINE
  5
237
100
AcDbEntity
  8
0
100
AcDbLine
 62
7
  6
BYLAYER
 10
4.8611111111
 20
4.1189155556
 11
5.1666666667
 21
4.1189155556
  0
LINE
  5
238
100
AcDbEntity
  8
0
100
AcDbLine
 62
7
  6
BYLAYER
 10
6.5247638871
 20
4.2022488889
 11
6.1106805553
 21
4.2022488889
  0
LINE
  5
239
100
AcDbEntity
  8
0
100
AcDbLine
 62
7
  6
BYLAYER
 10
6.5247638871
 20
4.3689155556
 11
6.1106805553
 21
4.3689155556
  0
LINE
  5
23A
100
AcDbEntity
  8
0
100
AcDbLine
 62
7
  6
BYLAYER
 10
5.7083333333
 20
3.6325645335
 11
5.7083333333
 21
3.5911377778
  0
LINE
  5
23B
100
AcDbEntity
  8
0
100
AcDbLine
 62
7
  6
BYLAYER
 10
4.9027777778
 20
4.4522488889
 11
5.125
 21
4.4522488889
  0
LINE
  5
23C
100
AcDbEntity
  8
0
100
AcDbLine
 62
7
  6
BYLAYER
 10
4.8611111111
 20
4.4687510798
 11
5.1666666667
 21
4.4687510798
  0
LINE
  5
23D
100
AcDbEntity
  8
0
100
AcDbLine
 62
7
  6
BYLAYER
 10
5.8590277778
 20
5.0494711111
 11
5.8590277778
 21
3.6189155556
  0
LINE
  5
23E
100
AcDbEntity
  8
0
100
AcDbLine
 62
7
  6
BYLAYER
 10
5.93125
 20
3.6189155556
 11
5.93125
 21
4.9921794444
  0
LINE
  5
23F
100
AcDbEntity
  8
0
100
AcDbLine
 62
7
  6
BYLAYER
 10
6.1106805553
 20
4.62586
 11
6.5247638871
 21
4.62586
  0
LINE
  5
240
100
AcDbEntity
  8
0
100
AcDbLine
 62
7
  6
BYLAYER
 10
5.9694444444
 20
3.6189155556
 11
5.9694444444
 21
4.953985
  0
LINE
  5
241
100
AcDbEntity
  8
0
100
AcDbLine
 62
7
  6
BYLAYER
 10
6.0416666667
 20
4.953985
 11
6.0416666667
 21
3.6189155556
  0
LINE
  5
242
100
AcDbEntity
  8
0
100
AcDbLine
 62
7
  6
BYLAYER
 10
6.5937777758
 20
4.9661377778
 11
6.0416666667
 21
4.8932211111
  0
LINE
  5
243
100
AcDbEntity
  8
0
100
AcDbLine
 62
7
  6
BYLAYER
 10
6.1106805553
 20
4.62586
 11
6.1106805553
 21
3.9453044444
  0
LINE
  5
244
100
AcDbEntity
  8
0
100
AcDbLine
 62
7
  6
BYLAYER
 10
7.3611111111
 20
4.8411377778
 11
7.25
 21
4.8411377778
  0
LINE
  5
245
100
AcDbEntity
  8
0
100
AcDbLine
 62
7
  6
BYLAYER
 10
6.0416666667
 20
4.953985
 11
5.9694444444
 21
4.953985
  0
LINE
  5
246
100
AcDbEntity
  8
0
100
AcDbLine
 62
7
  6
BYLAYER
 10
6.3055555556
 20
5.1744711111
 11
6.3055555556
 21
5.0633599997
  0
LINE
  5
247
100
AcDbEntity
  8
0
100
AcDbLine
 62
7
  6
BYLAYER
 10
6.5937777778
 20
5.06336
 11
6.6984337155
 21
5.0725162081
  0
LINE
  5
248
100
AcDbEntity
  8
0
100
AcDbLine
 62
7
  6
BYLAYER
 10
6.872280479
 20
5.0877258291
 11
7.012164729
 21
5.0999641152
  0
LINE
  5
249
100
AcDbEntity
  8
0
100
AcDbLine
 62
7
  6
BYLAYER
 10
5.93125
 20
4.9921794444
 11
5.8590277778
 21
4.9921794444
  0
LINE
  5
24A
100
AcDbEntity
  8
0
100
AcDbLine
 62
7
  6
BYLAYER
 10
3.7111111111
 20
4.9921794444
 11
3.6944444444
 21
4.9921794444
  0
LINE
  5
24B
100
AcDbEntity
  8
0
100
AcDbLine
 62
7
  6
BYLAYER
 10
3.7111111111
 20
5.0494711111
 11
5.8590277778
 21
5.0494711111
  0
LINE
  5
24C
100
AcDbEntity
  8
0
100
AcDbLine
 62
7
  6
BYLAYER
 10
7.3055555556
 20
5.0633599997
 11
7.0521111111
 21
5.0633599997
  0
LINE
  5
24D
100
AcDbEntity
  8
0
100
AcDbLine
 62
7
  6
BYLAYER
 10
6.3055555556
 20
5.0633599997
 11
6.5937777778
 21
5.0633599997
  0
LINE
  5
24E
100
AcDbEntity
  8
0
100
AcDbLine
 62
7
  6
BYLAYER
 10
5.9694444444
 20
4.953985
 11
5.93125
 21
4.9921794444
  0
LINE
  5
24F
100
AcDbEntity
  8
0
100
AcDbLine
 62
7
  6
BYLAYER
 10
6.3055555556
 20
5.1744711111
 11
7.3055555556
 21
5.1744711111
  0
LINE
  5
250
100
AcDbEntity
  8
0
100
AcDbLine
 62
7
  6
BYLAYER
 10
7.1155658528
 20
4.712486987
 11
7.25
 21
4.6764654658
  0
LINE
  5
251
100
AcDbEntity
  8
0
100
AcDbLine
 62
7
  6
BYLAYER
 10
6.591849543
 20
3.6049294283
 11
6.5918316783
 21
3.6052836855
  0
LINE
  5
252
100
AcDbEntity
  8
0
100
AcDbLine
 62
7
  6
BYLAYER
 10
6.5247638871
 20
4.62586
 11
6.5247638871
 21
3.9453044444
  0
LINE
  5
253
100
AcDbEntity
  8
0
100
AcDbLine
 62
7
  6
BYLAYER
 10
6.5585682735
 20
5.0304928901
 11
6.5585682735
 21
4.9614877001
  0
LINE
  5
254
100
AcDbEntity
  8
0
100
AcDbLine
 62
7
  6
BYLAYER
 10
6.5782037645
 20
5.0304928901
 11
6.5782037645
 21
4.9640809364
  0
LINE
  5
255
100
AcDbEntity
  8
0
100
AcDbLine
 62
7
  6
BYLAYER
 10
6.5937777778
 20
3.4443949358
 11
6.5937777778
 21
5.0633599998
  0
LINE
  5
256
100
AcDbEntity
  8
0
100
AcDbLine
 62
7
  6
BYLAYER
 10
7.0342645273
 20
3.4762924317
 11
7.0342645273
 21
4.2855822222
  0
LINE
  5
257
100
AcDbEntity
  8
0
100
AcDbLine
 62
7
  6
BYLAYER
 10
7.0521111111
 20
5.06336
 11
7.0521111111
 21
3.5078044453
  0
LINE
  5
258
100
AcDbEntity
  8
0
100
AcDbLine
 62
7
  6
BYLAYER
 10
7.0555555556
 20
3.5810702767
 11
7.0555555556
 21
5.0304928898
  0
LINE
  5
259
100
AcDbEntity
  8
0
100
AcDbLine
 62
7
  6
BYLAYER
 10
7.25
 20
4.8411377778
 11
7.25
 21
3.7300266667
  0
LINE
  5
25A
100
AcDbEntity
  8
0
100
AcDbLine
 62
7
  6
BYLAYER
 10
7.3055555556
 20
5.1744711111
 11
7.3055555556
 21
5.0633599997
  0
LINE
  5
25B
100
AcDbEntity
  8
0
100
AcDbLine
 62
7
  6
BYLAYER
 10
7.3611111111
 20
4.8411377778
 11
7.3611111111
 21
3.7300266667
  0
LINE
  5
25C
100
AcDbEntity
  8
0
100
AcDbLine
 62
7
  6
BYLAYER
 10
3.6388888889
 20
12.0573322369
 11
3.6388888889
 21
13.3594004297
  0
LINE
  5
25D
100
AcDbEntity
  8
0
100
AcDbLine
 62
7
  6
BYLAYER
 10
3.7111111111
 20
11.9444774456
 11
3.7111111111
 21
13.4722552211
  0
LINE
  5
25E
100
AcDbEntity
  8
0
100
AcDbLine
 62
7
  6
BYLAYER
 10
4.9027777778
 20
11.5139218889
 11
5.125
 21
11.5139218889
  0
LINE
  5
25F
100
AcDbEntity
  8
0
100
AcDbLine
 62
7
  6
BYLAYER
 10
4.8611111111
 20
11.5416996667
 11
4.875
 21
11.5416996667
  0
LINE
  5
260
100
AcDbEntity
  8
0
100
AcDbLine
 62
7
  6
BYLAYER
 10
5.1527777778
 20
11.5416996667
 11
5.1666666667
 21
11.5416996667
  0
LINE
  5
261
100
AcDbEntity
  8
0
100
AcDbLine
 62
7
  6
BYLAYER
 10
7.25
 20
12.3174830897
 11
7.1155658528
 21
12.2814615685
  0
LINE
  5
262
100
AcDbEntity
  8
0
100
AcDbLine
 62
7
  6
BYLAYER
 10
4.9027777778
 20
11.9112969123
 11
5.125
 21
11.9112969123
  0
LINE
  5
263
100
AcDbEntity
  8
0
100
AcDbLine
 62
7
  6
BYLAYER
 10
4.8611111111
 20
11.9295944052
 11
5.1666666667
 21
11.9295944052
  0
LINE
  5
264
100
AcDbEntity
  8
0
100
AcDbLine
 62
7
  6
BYLAYER
 10
3.7111111111
 20
11.9444774444
 11
5.8590277778
 21
11.9444774444
  0
LINE
  5
265
100
AcDbEntity
  8
0
100
AcDbLine
 62
7
  6
BYLAYER
 10
4.9027777778
 20
11.96288095
 11
5.125
 21
11.96288095
  0
LINE
  5
266
100
AcDbEntity
  8
0
100
AcDbLine
 62
7
  6
BYLAYER
 10
5.93125
 20
12.0017691111
 11
5.8590277778
 21
12.0017691111
  0
LINE
  5
267
100
AcDbEntity
  8
0
100
AcDbLine
 62
7
  6
BYLAYER
 10
3.7111111111
 20
12.0017691111
 11
3.6944444444
 21
12.0017691111
  0
LINE
  5
268
100
AcDbEntity
  8
0
100
AcDbLine
 62
7
  6
BYLAYER
 10
4.8611111111
 20
11.9444774444
 11
4.8611111111
 21
11.5416996667
  0
LINE
  5
269
100
AcDbEntity
  8
0
100
AcDbLine
 62
7
  6
BYLAYER
 10
4.875
 20
11.9572098176
 11
4.875
 21
11.9444774444
  0
LINE
  5
26A
100
AcDbEntity
  8
0
100
AcDbLine
 62
7
  6
BYLAYER
 10
4.875
 20
11.8804971419
 11
4.875
 21
11.5416996667
  0
LINE
  5
26B
100
AcDbEntity
  8
0
100
AcDbLine
 62
7
  6
BYLAYER
 10
6.0416666667
 20
12.0399635556
 11
5.9694444444
 21
12.0399635556
  0
LINE
  5
26C
100
AcDbEntity
  8
0
100
AcDbLine
 62
7
  6
BYLAYER
 10
7.25
 20
12.1528107778
 11
7.3611111111
 21
12.1528107778
  0
LINE
  5
26D
100
AcDbEntity
  8
0
100
AcDbLine
 62
7
  6
BYLAYER
 10
6.0416666667
 20
12.1007274444
 11
6.1106805553
 21
12.0916128611
  0
LINE
  5
26E
100
AcDbEntity
  8
0
100
AcDbLine
 62
7
  6
BYLAYER
 10
6.5247638871
 20
12.0369253611
 11
6.5937777758
 21
12.0278107778
  0
LINE
  5
26F
100
AcDbEntity
  8
0
100
AcDbLine
 62
7
  6
BYLAYER
 10
5.1527777778
 20
11.5416996667
 11
5.1527777778
 21
11.8804971419
  0
LINE
  5
270
100
AcDbEntity
  8
0
100
AcDbLine
 62
7
  6
BYLAYER
 10
5.1527777778
 20
11.9444774444
 11
5.1527777778
 21
11.9572098176
  0
LINE
  5
271
100
AcDbEntity
  8
0
100
AcDbLine
 62
7
  6
BYLAYER
 10
5.1666666667
 20
11.9444774444
 11
5.1666666667
 21
11.5416996667
  0
LINE
  5
272
100
AcDbEntity
  8
0
100
AcDbLine
 62
7
  6
BYLAYER
 10
5.8590277778
 20
13.4722552211
 11
5.8590277778
 21
11.9444774456
  0
LINE
  5
273
100
AcDbEntity
  8
0
100
AcDbLine
 62
7
  6
BYLAYER
 10
5.93125
 20
12.0017691111
 11
5.93125
 21
13.4149635556
  0
LINE
  5
274
100
AcDbEntity
  8
0
100
AcDbLine
 62
7
  6
BYLAYER
 10
5.9694444444
 20
12.0399635556
 11
5.9694444444
 21
13.3767691111
  0
LINE
  5
275
100
AcDbEntity
  8
0
100
AcDbLine
 62
7
  6
BYLAYER
 10
6.0416666667
 20
13.3767691111
 11
6.0416666667
 21
12.0399635556
  0
LINE
  5
276
100
AcDbEntity
  8
0
100
AcDbLine
 62
7
  6
BYLAYER
 10
6.1106805553
 20
13.3251198056
 11
6.1106805553
 21
13.222755174
  0
LINE
  5
277
100
AcDbEntity
  8
0
100
AcDbLine
 62
7
  6
BYLAYER
 10
6.1106805553
 20
12.1939774926
 11
6.1106805553
 21
12.0916128611
  0
LINE
  5
278
100
AcDbEntity
  8
0
100
AcDbLine
 62
7
  6
BYLAYER
 10
6.0416666667
 20
13.3160052222
 11
6.1106805553
 21
13.3251198056
  0
LINE
  5
279
100
AcDbEntity
  8
0
100
AcDbLine
 62
7
  6
BYLAYER
 10
7.2529872613
 20
13.2639218889
 11
7.3611111111
 21
13.2639218889
  0
LINE
  5
27A
100
AcDbEntity
  8
0
100
AcDbLine
 62
7
  6
BYLAYER
 10
6.0416666667
 20
13.3767691111
 11
5.9694444444
 21
13.3767691111
  0
LINE
  5
27B
100
AcDbEntity
  8
0
100
AcDbLine
 62
7
  6
BYLAYER
 10
5.93125
 20
13.4149635556
 11
5.8590277778
 21
13.4149635556
  0
LINE
  5
27C
100
AcDbEntity
  8
0
100
AcDbLine
 62
7
  6
BYLAYER
 10
3.7111111111
 20
13.4149635556
 11
3.6944444444
 21
13.4149635556
  0
LINE
  5
27D
100
AcDbEntity
  8
0
100
AcDbLine
 62
7
  6
BYLAYER
 10
3.7111111111
 20
13.4722552222
 11
5.8590277778
 21
13.4722552222
  0
LINE
  5
27E
100
AcDbEntity
  8
0
100
AcDbLine
 62
7
  6
BYLAYER
 10
5.9694444444
 20
12.0399635556
 11
5.93125
 21
12.0017691111
  0
LINE
  5
27F
100
AcDbEntity
  8
0
100
AcDbLine
 62
7
  6
BYLAYER
 10
7.25
 20
13.0992495769
 11
7.1515374727
 21
13.1256325316
  0
LINE
  5
280
100
AcDbEntity
  8
0
100
AcDbLine
 62
7
  6
BYLAYER
 10
5.9694444444
 20
13.3767691111
 11
5.93125
 21
13.4149635556
  0
LINE
  5
281
100
AcDbEntity
  8
0
100
AcDbLine
 62
7
  6
BYLAYER
 10
6.5247638871
 20
12.1295364679
 11
6.5247638871
 21
12.0369253611
  0
LINE
  5
282
100
AcDbEntity
  8
0
100
AcDbLine
 62
7
  6
BYLAYER
 10
6.5937777778
 20
11.867179047
 11
6.5937777778
 21
13.0336076885
  0
LINE
  5
283
100
AcDbEntity
  8
0
100
AcDbLine
 62
7
  6
BYLAYER
 10
7.0521111111
 20
13.051523371
 11
7.0521111111
 21
11.9305885564
  0
LINE
  5
284
100
AcDbEntity
  8
0
100
AcDbLine
 62
7
  6
BYLAYER
 10
7.0555555556
 20
12.000033
 11
7.0555555556
 21
12.746926783
  0
LINE
  5
285
100
AcDbEntity
  8
0
100
AcDbLine
 62
7
  6
BYLAYER
 10
7.25
 20
12.1528107778
 11
7.25
 21
13.257814619
  0
LINE
  5
286
100
AcDbEntity
  8
0
100
AcDbLine
 62
7
  6
BYLAYER
 10
7.3611111111
 20
12.1528107778
 11
7.3611111111
 21
13.2639218889
  0
LINE
  5
287
100
AcDbEntity
  8
0
100
AcDbLine
 62
7
  6
BYLAYER
 10
15.2638888889
 20
4.4259971111
 11
15.2638888889
 21
4.1482193333
  0
LINE
  5
288
100
AcDbEntity
  8
0
100
AcDbLine
 62
7
  6
BYLAYER
 10
15.2916666667
 20
4.1204415556
 11
15.3065497059
 21
4.1039393647
  0
LINE
  5
289
100
AcDbEntity
  8
0
100
AcDbLine
 62
7
  6
BYLAYER
 10
15.7638888889
 20
3.6137748889
 11
15.7638888889
 21
3.5926637778
  0
LINE
  5
28A
100
AcDbEntity
  8
0
100
AcDbLine
 62
7
  6
BYLAYER
 10
15.5007743628
 20
4.309032153
 11
15.2916666667
 21
4.1204415556
  0
LINE
  5
28B
100
AcDbEntity
  8
0
100
AcDbLine
 62
7
  6
BYLAYER
 10
15.3065497059
 20
4.1039393647
 11
15.5002943779
 21
4.2786743176
  0
LINE
  5
28C
100
AcDbEntity
  8
0
100
AcDbLine
 62
7
  6
BYLAYER
 10
15.7638888889
 20
3.5926637778
 11
15.7987117277
 21
3.5926637778
  0
LINE
  5
28D
100
AcDbEntity
  8
0
100
AcDbLine
 62
7
  6
BYLAYER
 10
17.1179386178
 20
3.5926637778
 11
17.1527777778
 21
3.5926637778
  0
LINE
  5
28E
100
AcDbEntity
  8
0
100
AcDbLine
 62
7
  6
BYLAYER
 10
17.1527777778
 20
3.6137748889
 11
17.1398486638
 21
3.6137748889
  0
LINE
  5
28F
100
AcDbEntity
  8
0
100
AcDbLine
 62
7
  6
BYLAYER
 10
15.7768672757
 20
3.6137748889
 11
15.7638888889
 21
3.6137748889
  0
LINE
  5
290
100
AcDbEntity
  8
0
100
AcDbLine
 62
7
  6
BYLAYER
 10
15.5151961914
 20
4.1204415556
 11
15.3248471988
 21
4.1204415556
  0
LINE
  5
291
100
AcDbEntity
  8
0
100
AcDbLine
 62
7
  6
BYLAYER
 10
15.2916666667
 20
4.4537748889
 11
15.5174376188
 21
4.4537748889
  0
LINE
  5
292
100
AcDbEntity
  8
0
100
AcDbLine
 62
7
  6
BYLAYER
 10
16.7361111111
 20
5.0648859997
 11
16.7361111111
 21
5.1759971111
  0
LINE
  5
293
100
AcDbEntity
  8
0
100
AcDbLine
 62
7
  6
BYLAYER
 10
16.9861111111
 20
5.0320188898
 11
16.9861111111
 21
4.9069198878
  0
LINE
  5
294
100
AcDbEntity
  8
0
100
AcDbLine
 62
7
  6
BYLAYER
 10
17.1527777778
 20
3.5926637778
 11
17.1527777778
 21
3.6137748889
  0
LINE
  5
295
100
AcDbEntity
  8
0
100
AcDbLine
 62
7
  6
BYLAYER
 10
17.7361111111
 20
5.0648859997
 11
16.7361111111
 21
5.0648859997
  0
LINE
  5
296
100
AcDbEntity
  8
0
100
AcDbLine
 62
7
  6
BYLAYER
 10
17.7361111111
 20
5.1759971111
 11
16.7361111111
 21
5.1759971111
  0
LINE
  5
297
100
AcDbEntity
  8
0
100
AcDbLine
 62
7
  6
BYLAYER
 10
17.4861111111
 20
5.0320188898
 11
17.4861111111
 21
4.564886
  0
LINE
  5
298
100
AcDbEntity
  8
0
100
AcDbLine
 62
7
  6
BYLAYER
 10
17.7361111111
 20
5.0648859997
 11
17.7361111111
 21
5.1759971111
  0
LINE
  5
299
100
AcDbEntity
  8
0
100
AcDbLine
 62
7
  6
BYLAYER
 10
15.4707191292
 20
11.5247597282
 11
15.4771589019
 21
11.5116368511
  0
LINE
  5
29A
100
AcDbEntity
  8
0
100
AcDbLine
 62
7
  6
BYLAYER
 10
15.9353479018
 20
11.4592935706
 11
15.7306676809
 21
11.4592935706
  0
LINE
  5
29B
100
AcDbEntity
  8
0
100
AcDbLine
 62
7
  6
BYLAYER
 10
15.7007635247
 20
11.4698044048
 11
15.7090099708
 21
11.4698044048
  0
LINE
  5
29C
100
AcDbEntity
  8
0
100
AcDbLine
 62
7
  6
BYLAYER
 10
15.9569922732
 20
11.4698044048
 11
15.9821988284
 21
11.4698044048
  0
LINE
  5
29D
100
AcDbEntity
  8
0
100
AcDbLine
 62
7
  6
BYLAYER
 10
15.4771589019
 20
11.5116368511
 11
15.6876704993
 21
11.5116368511
  0
LINE
  5
29E
100
AcDbEntity
  8
0
100
AcDbLine
 62
7
  6
BYLAYER
 10
15.9898412052
 20
11.5116368511
 11
16.7564102825
 21
11.5116368511
  0
LINE
  5
29F
100
AcDbEntity
  8
0
100
AcDbLine
 62
7
  6
BYLAYER
 10
15.7057306905
 20
11.4748340509
 11
15.6209968387
 21
11.6475034865
  0
LINE
  5
2A0
100
AcDbEntity
  8
0
100
AcDbLine
 62
7
  6
BYLAYER
 10
15.9821988284
 20
11.4698044048
 11
15.9908353701
 21
11.4712047635
  0
LINE
  5
2A1
100
AcDbEntity
  8
0
100
AcDbLine
 62
7
  6
BYLAYER
 10
15.4707191292
 20
11.5247597282
 11
15.6812307266
 21
11.5247597282
  0
LINE
  5
2A2
100
AcDbEntity
  8
0
100
AcDbLine
 62
7
  6
BYLAYER
 10
15.9895185332
 20
11.5247597282
 11
16.7499705097
 21
11.5247597282
  0
LINE
  5
2A3
100
AcDbEntity
  8
0
100
AcDbLine
 62
7
  6
BYLAYER
 10
14.8731137811
 20
11.7233985718
 11
15.6365317072
 21
11.7233985718
  0
LINE
  5
2A4
100
AcDbEntity
  8
0
100
AcDbLine
 62
7
  6
BYLAYER
 10
16.0374524036
 20
11.7233985718
 11
16.8514760411
 21
11.7233985718
  0
LINE
  5
2A5
100
AcDbEntity
  8
0
100
AcDbLine
 62
7
  6
BYLAYER
 10
16.9179971129
 20
11.7806902385
 11
16.8514760411
 21
11.7806902385
  0
LINE
  5
2A6
100
AcDbEntity
  8
0
100
AcDbLine
 62
7
  6
BYLAYER
 10
17.0196975977
 20
11.8188846829
 11
16.9531765259
 21
11.8188846829
  0
LINE
  5
2A7
100
AcDbEntity
  8
0
100
AcDbLine
 62
7
  6
BYLAYER
 10
15.6879452966
 20
11.9911140407
 11
15.6902534644
 21
11.897242242
  0
LINE
  5
2A8
100
AcDbEntity
  8
0
100
AcDbLine
 62
7
  6
BYLAYER
 10
15.7003713157
 20
11.4857553085
 11
15.7007635247
 21
11.4698044048
  0
LINE
  5
2A9
100
AcDbEntity
  8
0
100
AcDbLine
 62
7
  6
BYLAYER
 10
18.1326462988
 20
11.9317319052
 11
18.2349864092
 21
11.9317319052
  0
LINE
  5
2AA
100
AcDbEntity
  8
0
100
AcDbLine
 62
7
  6
BYLAYER
 10
15.7269274903
 20
11.9665231958
 11
15.9316077112
 21
11.9665231958
  0
LINE
  5
2AB
100
AcDbEntity
  8
0
100
AcDbLine
 62
7
  6
BYLAYER
 10
17.0064849365
 20
11.880596578
 11
17.3214144009
 21
11.8353690014
  0
LINE
  5
2AC
100
AcDbEntity
  8
0
100
AcDbLine
 62
7
  6
BYLAYER
 10
15.5321031746
 20
11.7233985718
 11
15.4707191292
 21
11.5247597282
  0
LINE
  5
2AD
100
AcDbEntity
  8
0
100
AcDbLine
 62
7
  6
BYLAYER
 10
15.978017142
 20
11.9925143995
 11
15.9693806003
 21
11.9911140407
  0
LINE
  5
2AE
100
AcDbEntity
  8
0
100
AcDbLine
 62
7
  6
BYLAYER
 10
15.6965818383
 20
11.9925143995
 11
15.6879452966
 21
11.9911140407
  0
LINE
  5
2AF
100
AcDbEntity
  8
02___PRT_ALL_AXES
100
AcDbLine
 62
7
  6
BYLAYER
 10
18.4180821279
 20
12.3041856709
 11
18.4202311769
 21
12.3045063099
  0
LINE
  5
2B0
100
AcDbEntity
  8
02___PRT_ALL_AXES
100
AcDbLine
 62
7
  6
BYLAYER
 10
18.418026139
 20
12.4019633429
 11
18.41587709
 21
12.4016427039
  0
LINE
  5
2B1
100
AcDbEntity
  8
0
100
AcDbLine
 62
7
  6
BYLAYER
 10
15.6879452966
 20
11.9911140407
 11
15.9693806003
 21
11.9911140407
  0
LINE
  5
2B2
100
AcDbEntity
  8
0
100
AcDbLine
 62
7
  6
BYLAYER
 10
15.6965818383
 20
11.9925143995
 11
15.978017142
 21
11.9925143995
  0
LINE
  5
2B3
100
AcDbEntity
  8
0
100
AcDbLine
 62
7
  6
BYLAYER
 10
15.7394142486
 20
12.0069303606
 11
15.9440944695
 21
12.0069303606
  0
LINE
  5
2B4
100
AcDbEntity
  8
0
100
AcDbLine
 62
7
  6
BYLAYER
 10
15.9582105368
 20
11.9251299632
 11
15.9683885166
 21
11.5111976374
  0
LINE
  5
2B5
100
AcDbEntity
  8
0
100
AcDbLine
 62
7
  6
BYLAYER
 10
15.9693806003
 20
11.9911140407
 11
15.9821988284
 21
11.4698044048
  0
LINE
  5
2B6
100
AcDbEntity
  8
0
100
AcDbLine
 62
7
  6
BYLAYER
 10
15.9908353701
 20
11.4712047635
 11
15.978017142
 21
11.9925143995
  0
LINE
  5
2B7
100
AcDbEntity
  8
0
100
AcDbLine
 62
7
  6
BYLAYER
 10
15.720595003
 20
11.9954274967
 11
15.7196947878
 21
11.9925143995
  0
LINE
  5
2B8
100
AcDbEntity
  8
0
100
AcDbLine
 62
7
  6
BYLAYER
 10
15.704947016
 20
11.9447905924
 11
15.6193943612
 21
11.6679420999
  0
LINE
  5
2B9
100
AcDbEntity
  8
02___PRT_ALL_AXES
100
AcDbLine
 62
7
  6
BYLAYER
 10
18.0519466794
 20
12.5726115785
 11
18.0540957284
 21
12.5729322175
  0
LINE
  5
2BA
100
AcDbEntity
  8
02___PRT_ALL_AXES
100
AcDbLine
 62
7
  6
BYLAYER
 10
18.0518906905
 20
12.6703892506
 11
18.0497416416
 21
12.6700686116
  0
LINE
  5
2BB
100
AcDbEntity
  8
0
100
AcDbLine
 62
7
  6
BYLAYER
 10
16.7499705097
 20
11.5247597282
 11
16.7564102825
 21
11.5116368511
  0
LINE
  5
2BC
100
AcDbEntity
  8
0
100
AcDbLine
 62
7
  6
BYLAYER
 10
16.0630880115
 20
11.8063554294
 11
15.9885272023
 21
11.5650765623
  0
LINE
  5
2BD
100
AcDbEntity
  8
0
100
AcDbLine
 62
7
  6
BYLAYER
 10
15.9658017612
 20
11.4915370081
 11
15.9618873697
 21
11.4788700325
  0
LINE
  5
2BE
100
AcDbEntity
  8
0
100
AcDbLine
 62
7
  6
BYLAYER
 10
17.0064849365
 20
13.0939783435
 11
17.3672783207
 21
13.1457925186
  0
LINE
  5
2BF
100
AcDbEntity
  8
0
100
AcDbLine
 62
7
  6
BYLAYER
 10
18.1326462988
 20
13.0428430163
 11
18.2349864092
 21
13.0428430163
  0
LINE
  5
2C0
100
AcDbEntity
  8
0
100
AcDbLine
 62
7
  6
BYLAYER
 10
17.0196975977
 20
13.1556902385
 11
16.9531765259
 21
13.1556902385
  0
LINE
  5
2C1
100
AcDbEntity
  8
0
100
AcDbLine
 62
7
  6
BYLAYER
 10
16.9179971129
 20
13.1938846829
 11
16.8514760411
 21
13.1938846829
  0
LINE
  5
2C2
100
AcDbEntity
  8
0
100
AcDbLine
 62
7
  6
BYLAYER
 10
17.3273892979
 20
11.8222952225
 11
17.3100525889
 21
11.8602299857
  0
LINE
  5
2C3
100
AcDbEntity
  8
0
100
AcDbLine
 62
7
  6
BYLAYER
 10
16.8113545551
 20
11.7233985718
 11
16.7499705097
 21
11.5247597282
  0
LINE
  5
2C4
100
AcDbEntity
  8
0
100
AcDbLine
 62
7
  6
BYLAYER
 10
16.7564102825
 20
11.5116368511
 11
16.8218496036
 21
11.7233985718
  0
LINE
  5
2C5
100
AcDbEntity
  8
0
100
AcDbLine
 62
7
  6
BYLAYER
 10
14.8731137811
 20
13.2511763496
 11
16.8514760411
 21
13.2511763496
  0
LINE
  5
2C6
100
AcDbEntity
  8
0
100
AcDbLine
 62
7
  6
BYLAYER
 10
16.9683069795
 20
11.7928686423
 11
16.9645618672
 21
11.7807494542
  0
LINE
  5
2C7
100
AcDbEntity
  8
0
100
AcDbLine
 62
7
  6
BYLAYER
 10
17.0625463516
 20
11.8728327811
 11
17.1794149782
 21
12.2510197954
  0
LINE
  5
2C8
100
AcDbEntity
  8
0
100
AcDbLine
 62
7
  6
BYLAYER
 10
17.1915455114
 20
13.4288125633
 11
17.2254390523
 21
13.3597447889
  0
LINE
  5
2C9
100
AcDbEntity
  8
02__ASM_ALL_AXES
100
AcDbLine
 62
7
  6
BYLAYER
 10
18.0476221319
 20
12.5739926646
 11
18.0475470381
 21
12.5729156897
  0
LINE
  5
2CA
100
AcDbEntity
  8
02__ASM_ALL_AXES
100
AcDbLine
 62
7
  6
BYLAYER
 10
18.0622669231
 20
12.2816379198
 11
18.0626755659
 21
12.2793896776
  0
LINE
  5
2CB
100
AcDbEntity
  8
02__ASM_ALL_AXES
100
AcDbLine
 62
7
  6
BYLAYER
 10
18.0594364919
 20
12.2981012877
 11
18.0601836421
 21
12.2935929435
  0
LINE
  5
2CC
100
AcDbEntity
  8
0
100
AcDbLine
 62
7
  6
BYLAYER
 10
18.0362143807
 20
13.4100039882
 11
18.0512587256
 21
13.3793468366
  0
LINE
  5
2CD
100
AcDbEntity
  8
02__ASM_ALL_AXES
100
AcDbLine
 62
7
  6
BYLAYER
 10
18.4116623895
 20
12.3051448531
 11
18.4119263697
 21
12.3068425403
  0
LINE
  5
2CE
100
AcDbEntity
  8
0
100
AcDbLine
 62
7
  6
BYLAYER
 10
18.0892771649
 20
13.8693552722
 11
18.1231707057
 21
13.8002874978
  0
ARC
  5
2CF
100
AcDbEntity
  8
0
100
AcDbCircle
 62
7
  6
BYLAYER
 10
6.8055555556
 20
4.846856732
 40
0.25
100
AcDbArc
 50
66.95268684
 51
123.2222202265
  0
ARC
  5
2D0
100
AcDbEntity
  8
0
100
AcDbCircle
 62
7
  6
BYLAYER
 10
6.8055555556
 20
4.846856732
 40
0.25
100
AcDbArc
 50
358.3862584341
 51
9.5219767524
  0
ARC
  5
2D1
100
AcDbEntity
  8
0
100
AcDbCircle
 62
7
  6
BYLAYER
 10
6.8055555556
 20
3.5772488889
 40
0.25
100
AcDbArc
 50
212.1011655523
 51
336.1824315593
  0
ARC
  5
2D2
100
AcDbEntity
  8
0
100
AcDbCircle
 62
7
  6
BYLAYER
 10
6.8055555556
 20
3.5772488889
 40
0.25
100
AcDbArc
 50
350.4780232476
 51
0.8755613836
  0
ARC
  5
2D3
100
AcDbEntity
  8
0
100
AcDbCircle
 62
7
  6
BYLAYER
 10
7.2554230588
 20
4.8542595616
 40
0.2033119477
100
AcDbArc
 50
190.5143900334
 51
220.9051461514
  0
ARC
  5
2D4
100
AcDbEntity
  8
0
100
AcDbCircle
 62
7
  6
BYLAYER
 10
7.2554230588
 20
3.7169048829
 40
0.2033119477
100
AcDbArc
 50
139.0948538486
 51
169.9949813846
  0
ARC
  5
2D5
100
AcDbEntity
  8
0
100
AcDbCircle
 62
7
  6
BYLAYER
 10
3.6944444444
 20
3.6345405556
 40
0.0555555556
100
AcDbArc
 50
180.0
 51
196.3348227807
  0
ARC
  5
2D6
100
AcDbEntity
  8
0
100
AcDbCircle
 62
7
  6
BYLAYER
 10
3.6944444444
 20
4.9366238889
 40
0.0555555556
100
AcDbArc
 50
90.0
 51
180.0
  0
ARC
  5
2D7
100
AcDbEntity
  8
0
100
AcDbCircle
 62
7
  6
BYLAYER
 10
7.0153671741
 20
5.06336
 40
0.036743937
100
AcDbArc
 50
0.0
 51
95.0
  0
ARC
  5
2D8
100
AcDbEntity
  8
0
100
AcDbCircle
 62
7
  6
BYLAYER
 10
7.0153671741
 20
3.5078044444
 40
0.036743937
100
AcDbArc
 50
300.9505799505
 51
360.0
  0
ARC
  5
2D9
100
AcDbEntity
  8
0
100
AcDbCircle
 62
7
  6
BYLAYER
 10
7.0888888889
 20
5.0304928898
 40
0.0333333333
100
AcDbArc
 50
99.5940682269
 51
180.0
  0
ARC
  5
2DA
100
AcDbEntity
  8
0
100
AcDbCircle
 62
7
  6
BYLAYER
 10
7.1227552707
 20
4.73931826
 40
0.0277777778
100
AcDbArc
 50
220.9051461514
 51
255.0
  0
ARC
  5
2DB
100
AcDbEntity
  8
0
100
AcDbCircle
 62
7
  6
BYLAYER
 10
7.1227552707
 20
3.8318461845
 40
0.0277777778
100
AcDbArc
 50
105.0
 51
139.0948538486
  0
ARC
  5
2DC
100
AcDbEntity
  8
0
100
AcDbCircle
 62
7
  6
BYLAYER
 10
4.9027777778
 20
4.4244711111
 40
0.0277777778
100
AcDbArc
 50
90.0
 51
180.0
  0
ARC
  5
2DD
100
AcDbEntity
  8
0
100
AcDbCircle
 62
7
  6
BYLAYER
 10
5.125
 20
4.4244711111
 40
0.0277777778
100
AcDbArc
 50
0.0
 51
90.0
  0
ARC
  5
2DE
100
AcDbEntity
  8
0
100
AcDbCircle
 62
7
  6
BYLAYER
 10
4.9027777778
 20
4.1466933333
 40
0.0277777778
100
AcDbArc
 50
180.0
 51
270.0
  0
ARC
  5
2DF
100
AcDbEntity
  8
0
100
AcDbCircle
 62
7
  6
BYLAYER
 10
5.125
 20
4.1466933333
 40
0.0277777778
100
AcDbArc
 50
270.0
 51
360.0
  0
ARC
  5
2E0
100
AcDbEntity
  8
0
100
AcDbCircle
 62
7
  6
BYLAYER
 10
3.6944444444
 20
12.0573246667
 40
0.0555555556
100
AcDbArc
 50
180.0
 51
270.0
  0
ARC
  5
2E1
100
AcDbEntity
  8
0
100
AcDbCircle
 62
7
  6
BYLAYER
 10
5.125
 20
11.5416996667
 40
0.0277777778
100
AcDbArc
 50
270.0
 51
360.0
  0
ARC
  5
2E2
100
AcDbEntity
  8
0
100
AcDbCircle
 62
7
  6
BYLAYER
 10
4.9027777778
 20
11.5416996667
 40
0.0277777778
100
AcDbArc
 50
180.0
 51
270.0
  0
ARC
  5
2E3
100
AcDbEntity
  8
0
100
AcDbCircle
 62
7
  6
BYLAYER
 10
3.6944444444
 20
13.359408
 40
0.0555555556
100
AcDbArc
 50
90.0
 51
180.0
  0
ARC
  5
2E4
100
AcDbEntity
  8
0
100
AcDbCircle
 62
7
  6
BYLAYER
 10
6.8055555556
 20
12.000033
 40
0.25
100
AcDbArc
 50
350.4780232476
 51
360.0
  0
ARC
  5
2E5
100
AcDbEntity
  8
0
100
AcDbCircle
 62
7
  6
BYLAYER
 10
6.8055555556
 20
12.000033
 40
0.25
100
AcDbArc
 50
212.1011655523
 51
336.1824315593
  0
ARC
  5
2E6
100
AcDbEntity
  8
0
100
AcDbCircle
 62
7
  6
BYLAYER
 10
7.2554230588
 20
12.139688994
 40
0.2033119477
100
AcDbArc
 50
139.0948538486
 51
169.5001818997
  0
ARC
  5
2E7
100
AcDbEntity
  8
0
100
AcDbCircle
 62
7
  6
BYLAYER
 10
7.0153671741
 20
11.9305885556
 40
0.036743937
100
AcDbArc
 50
300.9505799505
 51
360.0
  0
ARC
  5
2E8
100
AcDbEntity
  8
0
100
AcDbCircle
 62
7
  6
BYLAYER
 10
7.1227552707
 20
12.2546302956
 40
0.0277777778
100
AcDbArc
 50
105.0
 51
139.0948538486
  0
CIRCLE
  5
2E9
100
AcDbEntity
  8
0
100
AcDbCircle
 62
7
  6
BYLAYER
 10
6.8055555556
 20
13.4861441111
 40
0.5
  0
CIRCLE
  5
2EA
100
AcDbEntity
  8
02__ASM_ALL_AXES
100
AcDbCircle
 62
7
  6
BYLAYER
 10
6.8055555556
 20
13.4861441111
 40
0.4166666667
  0
CIRCLE
  5
2EB
100
AcDbEntity
  8
0
100
AcDbCircle
 62
7
  6
BYLAYER
 10
6.8055555556
 20
13.4861441111
 40
0.2222222222
  0
CIRCLE
  5
2EC
100
AcDbEntity
  8
02___PRT_ALL_AXES
100
AcDbCircle
 62
7
  6
BYLAYER
 10
7.1905053608
 20
13.326692681
 40
0.0416666667
  0
CIRCLE
  5
2ED
100
AcDbEntity
  8
02___PRT_ALL_AXES
100
AcDbCircle
 62
7
  6
BYLAYER
 10
6.9650069857
 20
13.1011943059
 40
0.0416666667
  0
CIRCLE
  5
2EE
100
AcDbEntity
  8
02___PRT_ALL_AXES
100
AcDbCircle
 62
7
  6
BYLAYER
 10
6.6461041254
 20
13.1011943059
 40
0.0416666667
  0
CIRCLE
  5
2EF
100
AcDbEntity
  8
02___PRT_ALL_AXES
100
AcDbCircle
 62
7
  6
BYLAYER
 10
6.4206057503
 20
13.326692681
 40
0.0416666667
  0
CIRCLE
  5
2F0
100
AcDbEntity
  8
02___PRT_ALL_AXES
100
AcDbCircle
 62
7
  6
BYLAYER
 10
6.4206057503
 20
13.6455955413
 40
0.0416666667
  0
CIRCLE
  5
2F1
100
AcDbEntity
  8
02___PRT_ALL_AXES
100
AcDbCircle
 62
7
  6
BYLAYER
 10
6.6461041254
 20
13.8710939163
 40
0.0416666667
  0
CIRCLE
  5
2F2
100
AcDbEntity
  8
02___PRT_ALL_AXES
100
AcDbCircle
 62
7
  6
BYLAYER
 10
6.9650069857
 20
13.8710939163
 40
0.0416666667
  0
CIRCLE
  5
2F3
100
AcDbEntity
  8
02___PRT_ALL_AXES
100
AcDbCircle
 62
7
  6
BYLAYER
 10
7.1905053608
 20
13.6455955413
 40
0.0416666667
  0
ARC
  5
2F4
100
AcDbEntity
  8
0
100
AcDbCircle
 62
7
  6
BYLAYER
 10
18.2966329908
 20
-63.7616923093
 40
77.9429444599
100
AcDbArc
 50
98.8098537628
 51
98.994782474
  0
ARC
  5
2F5
100
AcDbEntity
  8
0
100
AcDbCircle
 62
7
  6
BYLAYER
 10
19.1307445402
 20
94.4953169254
 40
83.3248614677
100
AcDbArc
 50
261.0103147116
 51
261.2984739663
  0
ARC
  5
2F6
100
AcDbEntity
  8
0
100
AcDbCircle
 62
7
  6
BYLAYER
 10
16.3112745098
 20
4.2871082222
 40
0.8112745098
100
AcDbArc
 50
86.0090119349
 51
180.0
  0
ARC
  5
2F7
100
AcDbEntity
  8
0
100
AcDbCircle
 62
7
  6
BYLAYER
 10
16.2727438137
 20
4.1451868248
 40
0.7496898083
100
AcDbArc
 50
70.5749920178
 51
74.8107132628
  0
ARC
  5
2F8
100
AcDbEntity
  8
0
100
AcDbCircle
 62
7
  6
BYLAYER
 10
16.3112745098
 20
4.2871082222
 40
0.6026309848
100
AcDbArc
 50
74.8107132628
 51
180.0
  0
ARC
  5
2F9
100
AcDbEntity
  8
0
100
AcDbCircle
 62
7
  6
BYLAYER
 10
16.3112745098
 20
4.2871082222
 40
0.5199180348
100
AcDbArc
 50
101.8696427434
 51
180.0
  0
CIRCLE
  5
2FA
100
AcDbEntity
  8
02___PRT_ALL_AXES
100
AcDbCircle
 62
7
  6
BYLAYER
 10
16.0066588952
 20
4.1000185442
 40
0.0488888889
  0
CIRCLE
  5
2FB
100
AcDbEntity
  8
02___PRT_ALL_AXES
100
AcDbCircle
 62
7
  6
BYLAYER
 10
16.2712436553
 20
3.8354337841
 40
0.0488888889
  0
ARC
  5
2FC
100
AcDbEntity
  8
0
100
AcDbCircle
 62
7
  6
BYLAYER
 10
15.2916666667
 20
4.4259971111
 40
0.0277777778
100
AcDbArc
 50
90.0
 51
180.0
  0
ARC
  5
2FD
100
AcDbEntity
  8
0
100
AcDbCircle
 62
7
  6
BYLAYER
 10
15.2916666667
 20
4.1482193333
 40
0.0277777778
100
AcDbArc
 50
180.0
 51
270.0
  0
ARC
  5
2FE
100
AcDbEntity
  8
0
100
AcDbCircle
 62
7
  6
BYLAYER
 10
15.9375
 20
4.564886
 40
1.5486111111
100
AcDbArc
 50
331.9275130641
 51
360.0
  0
ARC
  5
2FF
100
AcDbEntity
  8
0
100
AcDbCircle
 62
7
  6
BYLAYER
 10
15.9375
 20
4.564886
 40
1.3399675861
100
AcDbArc
 50
331.9275130641
 51
345.3020857431
  0
ARC
  5
300
100
AcDbEntity
  8
0
100
AcDbCircle
 62
7
  6
BYLAYER
 10
15.9375
 20
4.564886
 40
1.2572546361
100
AcDbArc
 50
331.9275130641
 51
358.7830828449
  0
CIRCLE
  5
301
100
AcDbEntity
  8
02___PRT_ALL_AXES
100
AcDbCircle
 62
7
  6
BYLAYER
 10
16.2712436553
 20
4.7387826603
 40
0.0488888889
  0
CIRCLE
  5
302
100
AcDbEntity
  8
02___PRT_ALL_AXES
100
AcDbCircle
 62
7
  6
BYLAYER
 10
16.0066588952
 20
4.4741979003
 40
0.0488888889
  0
ARC
  5
303
100
AcDbEntity
  8
0
100
AcDbCircle
 62
7
  6
BYLAYER
 10
16.4583333333
 20
4.2871082222
 40
0.9583333333
100
AcDbArc
 50
180.0
 51
331.9275130642
  0
ARC
  5
304
100
AcDbEntity
  8
0
100
AcDbCircle
 62
7
  6
BYLAYER
 10
16.4583333333
 20
4.2871082222
 40
0.8145217148
100
AcDbArc
 50
38.0013584452
 51
146.1535751804
  0
ARC
  5
305
100
AcDbEntity
  8
0
100
AcDbCircle
 62
7
  6
BYLAYER
 10
16.4583333333
 20
4.2871082222
 40
0.8092897905
100
AcDbArc
 50
180.0
 51
331.9275130641
  0
ARC
  5
306
100
AcDbEntity
  8
0
100
AcDbCircle
 62
7
  6
BYLAYER
 10
16.4583333333
 20
4.2871082222
 40
0.7496898083
100
AcDbArc
 50
180.0
 51
331.9275130641
  0
ARC
  5
307
100
AcDbEntity
  8
0
100
AcDbCircle
 62
7
  6
BYLAYER
 10
16.4583333333
 20
4.2871082222
 40
0.6669768583
100
AcDbArc
 50
180.0
 51
331.9275130641
  0
CIRCLE
  5
308
100
AcDbEntity
  8
0
100
AcDbCircle
 62
7
  6
BYLAYER
 10
16.4583333333
 20
4.2871082222
 40
0.5555555556
  0
CIRCLE
  5
309
100
AcDbEntity
  8
02__ASM_ALL_AXES
100
AcDbCircle
 62
7
  6
BYLAYER
 10
16.4583333333
 20
4.2871082222
 40
0.4888888889
  0
CIRCLE
  5
30A
100
AcDbEntity
  8
0
100
AcDbCircle
 62
7
  6
BYLAYER
 10
16.4583333333
 20
4.2871082222
 40
0.2777777778
  0
CIRCLE
  5
30B
100
AcDbEntity
  8
02___PRT_ALL_AXES
100
AcDbCircle
 62
7
  6
BYLAYER
 10
16.6454230114
 20
3.8354337841
 40
0.0488888889
  0
CIRCLE
  5
30C
100
AcDbEntity
  8
02___PRT_ALL_AXES
100
AcDbCircle
 62
7
  6
BYLAYER
 10
16.9100077714
 20
4.1000185442
 40
0.0488888889
  0
CIRCLE
  5
30D
100
AcDbEntity
  8
02___PRT_ALL_AXES
100
AcDbCircle
 62
7
  6
BYLAYER
 10
16.6454230114
 20
4.7387826603
 40
0.0488888889
  0
CIRCLE
  5
30E
100
AcDbEntity
  8
02___PRT_ALL_AXES
100
AcDbCircle
 62
7
  6
BYLAYER
 10
16.9100077714
 20
4.4741979003
 40
0.0488888889
  0
ARC
  5
30F
100
AcDbEntity
  8
0
100
AcDbCircle
 62
7
  6
BYLAYER
 10
17.5194444444
 20
5.0320188898
 40
0.0333333333
100
AcDbArc
 50
99.5940682269
 51
180.0
  0
ARC
  5
310
100
AcDbEntity
  8
0
100
AcDbCircle
 62
7
  6
BYLAYER
 10
16.9527777778
 20
5.0320188898
 40
0.0333333333
100
AcDbArc
 50
0.0
 51
80.4059317731
  0
ARC
  5
311
100
AcDbEntity
  8
0
100
AcDbCircle
 62
7
  6
BYLAYER
 10
27.5561499666
 20
88.4926334602
 40
76.9445386936
100
AcDbArc
 50
262.0055708231
 51
262.280538474
  0
ARC
  5
312
100
AcDbEntity
  8
0
100
AcDbCircle
 62
7
  6
BYLAYER
 10
27.3190153332
 20
84.8835325862
 40
73.7275894221
100
AcDbArc
 50
262.0034751338
 51
262.2059715698
  0
ARC
  5
313
100
AcDbEntity
  8
0
100
AcDbCircle
 62
7
  6
BYLAYER
 10
15.9120610837
 20
12.4476426803
 40
2.3381733021
100
AcDbArc
 50
14.7488415302
 51
14.9110056038
  0
ARC
  5
314
100
AcDbEntity
  8
0
100
AcDbCircle
 62
7
  6
BYLAYER
 10
16.230898958
 20
12.493421243
 40
2.0065807631
100
AcDbArc
 50
15.9854694846
 51
16.2798572545
  0
ARC
  5
315
100
AcDbEntity
  8
0
100
AcDbCircle
 62
7
  6
BYLAYER
 10
18.9935903097
 20
12.3721578657
 40
1.7712697892
100
AcDbArc
 50
176.6342724452
 51
184.0918007439
  0
ARC
  5
316
100
AcDbEntity
  8
0
100
AcDbCircle
 62
7
  6
BYLAYER
 10
18.5791439804
 20
12.4492964512
 40
1.3736166338
100
AcDbArc
 50
188.5366296139
 51
191.6615060647
  0
ARC
  5
317
100
AcDbEntity
  8
0
100
AcDbCircle
 62
7
  6
BYLAYER
 10
17.2992856948
 20
12.7135760026
 40
0.9289468716
100
AcDbArc
 50
20.7605975078
 51
21.0779912142
  0
ARC
  5
318
100
AcDbEntity
  8
0
100
AcDbCircle
 62
7
  6
BYLAYER
 10
17.5374143013
 20
13.8898238246
 40
0.6207723218
100
AcDbArc
 50
312.5083179411
 51
312.8705481224
  0
ARC
  5
319
100
AcDbEntity
  8
0
100
AcDbCircle
 62
7
  6
BYLAYER
 10
17.5582670075
 20
13.8683889568
 40
0.5908762593
100
AcDbArc
 50
312.8026992019
 51
319.2703535395
  0
ARC
  5
31A
100
AcDbEntity
  8
0
100
AcDbCircle
 62
7
  6
BYLAYER
 10
17.5193773806
 20
13.7954830142
 40
0.5380625512
100
AcDbArc
 50
269.7218759752
 51
270.0000847531
  0
ARC
  5
31B
100
AcDbEntity
  8
0
100
AcDbCircle
 62
7
  6
BYLAYER
 10
17.916522321
 20
13.1453677632
 40
0.1564269955
100
AcDbArc
 50
88.4829194281
 51
91.8275163424
  0
ARC
  5
31C
100
AcDbEntity
  8
0
100
AcDbCircle
 62
7
  6
BYLAYER
 10
17.7494502266
 20
13.6590698551
 40
0.1199810925
100
AcDbArc
 50
35.5390812279
 51
44.1424158364
  0
ARC
  5
31D
100
AcDbEntity
  8
0
100
AcDbCircle
 62
7
  6
BYLAYER
 10
15.6405717797
 20
11.6165454879
 40
0.0402128175
100
AcDbArc
 50
121.3313334473
 51
122.4674194523
  0
ARC
  5
31E
100
AcDbEntity
  8
0
100
AcDbCircle
 62
7
  6
BYLAYER
 10
15.6402970375
 20
11.6169623884
 40
0.0397135937
100
AcDbArc
 50
122.4558797035
 51
127.645174819
  0
ARC
  5
31F
100
AcDbEntity
  8
0
100
AcDbCircle
 62
7
  6
BYLAYER
 10
15.9467286737
 20
11.9726357968
 40
0.0327914982
100
AcDbArc
 50
37.3452558744
 51
43.0825276075
  0
ARC
  5
320
100
AcDbEntity
  8
0
100
AcDbCircle
 62
7
  6
BYLAYER
 10
15.9352110057
 20
11.4872081621
 40
0.0279693213
100
AcDbArc
 50
306.8048015055
 51
321.3743600311
  0
ARC
  5
321
100
AcDbEntity
  8
0
100
AcDbCircle
 62
7
  6
BYLAYER
 10
15.6459547894
 20
11.6597423233
 40
0.027797497
100
AcDbArc
 50
162.8318915532
 51
206.1057915564
  0
ARC
  5
322
100
AcDbEntity
  8
0
100
AcDbCircle
 62
7
  6
BYLAYER
 10
15.9353479376
 20
11.4870712405
 40
0.0277776699
100
AcDbArc
 50
269.9999261203
 51
306.7478508821
  0
ARC
  5
323
100
AcDbEntity
  8
0
100
AcDbCircle
 62
7
  6
BYLAYER
 10
15.7306673729
 20
11.4870710549
 40
0.027777372
100
AcDbArc
 50
206.1382496207
 51
269.9962773674
  0
ARC
  5
324
100
AcDbEntity
  8
0
100
AcDbCircle
 62
7
  6
BYLAYER
 10
15.9353639706
 20
11.4870657877
 40
0.0277609491
100
AcDbArc
 50
321.4068532224
 51
342.8259255376
  0
ARC
  5
325
100
AcDbEntity
  8
02___PRT_ALL_AXES
100
AcDbCircle
 62
7
  6
BYLAYER
 10
17.5691624783
 20
13.942033822
 40
0.022109139
100
AcDbArc
 50
206.2981977785
 51
220.9397755726
  0
ARC
  5
326
100
AcDbEntity
  8
02___PRT_ALL_AXES
100
AcDbCircle
 62
7
  6
BYLAYER
 10
17.6765246957
 20
13.3389507395
 40
0.022109139
100
AcDbArc
 50
206.2981977785
 51
220.9397755725
  0
ARC
  5
327
100
AcDbEntity
  8
02___PRT_ALL_AXES
100
AcDbCircle
 62
7
  6
BYLAYER
 10
17.6042979806
 20
13.9592170961
 40
0.022109139
100
AcDbArc
 50
26.2981977785
 51
40.9397755726
  0
ARC
  5
328
100
AcDbEntity
  8
02___PRT_ALL_AXES
100
AcDbCircle
 62
7
  6
BYLAYER
 10
17.711660198
 20
13.3561340135
 40
0.022109139
100
AcDbArc
 50
26.2981977784
 51
40.9397755727
  0
ARC
  5
329
100
AcDbEntity
  8
0
100
AcDbCircle
 62
7
  6
BYLAYER
 10
16.6724940588
 20
11.6242094181
 40
0.0187505656
100
AcDbArc
 50
53.1655894906
 51
59.9789388758
  0
SPLINE
  5
32A
100
AcDbEntity
  8
0
100
AcDbSpline
 62
7
  6
BYLAYER
 70
0
 71
3
 72
9
 73
5
 74
0
 42
0.0000001
 43
0.0000001
 44
0.0000000001
 40
0.0
 40
0.0
 40
0.0
 40
0.0
 40
0.4631299038
 40
1.0
 40
1.0
 40
1.0
 40
1.0
 10
6.5937777778
 20
3.5396857932
 30
0.0
 10
6.5937777778
 20
3.5497559823
 30
0.0
 10
6.5933376229
 20
3.5714993195
 30
0.0
 10
6.5924243363
 20
3.5932245095
 30
0.0
 10
6.5918632723
 20
3.6048845973
 30
0.0
  0
SPLINE
  5
32B
100
AcDbEntity
  8
0
100
AcDbSpline
 62
7
  6
BYLAYER
 70
0
 71
3
 72
13
 73
9
 74
0
 42
0.0000001
 43
0.0000001
 44
0.0000000001
 40
0.0
 40
0.0
 40
0.0
 40
0.0
 40
0.4221697451
 40
0.6825190018
 40
0.783074259
 40
0.8684218991
 40
0.9401174487
 40
1.0
 40
1.0
 40
1.0
 40
1.0
 10
6.5585682735
 20
5.0304928901
 30
0.0
 10
6.5585682735
 20
5.0355353021
 30
0.0
 10
6.5575926662
 20
5.0437163376
 30
0.0
 10
6.5547925089
 20
5.052684406
 30
0.0
 10
6.5524923579
 20
5.0575016185
 30
0.0
 10
6.5508596896
 20
5.060120208
 30
0.0
 10
6.5491699453
 20
5.0620981995
 30
0.0
 10
6.547885475
 20
5.063049354
 30
0.0
 10
6.5472412182
 20
5.0633599997
 30
0.0
  0
SPLINE
  5
32C
100
AcDbEntity
  8
0
100
AcDbSpline
 62
7
  6
BYLAYER
 70
0
 71
3
 72
14
 73
10
 74
0
 42
0.0000001
 43
0.0000001
 44
0.0000000001
 40
0.0
 40
0.0
 40
0.0
 40
0.0
 40
0.0436783732
 40
0.1058091038
 40
0.1863309253
 40
0.2857374603
 40
0.4062061957
 40
0.553610666
 40
1.0
 40
1.0
 40
1.0
 40
1.0
 10
6.5844389358
 20
5.0633599997
 30
0.0
 10
6.5841038292
 20
5.0630005927
 30
0.0
 10
6.5834897801
 20
5.06196014
 30
0.0
 10
6.5826807775
 20
5.0600294324
 30
0.0
 10
6.5818397651
 20
5.0574345424
 30
0.0
 10
6.5809761425
 20
5.0541669241
 30
0.0
 10
6.5801002748
 20
5.0501268687
 30
0.0
 10
6.5787385266
 20
5.0422072329
 30
0.0
 10
6.5782037645
 20
5.0355149145
 30
0.0
 10
6.5782037645
 20
5.0304928901
 30
0.0
  0
SPLINE
  5
32D
100
AcDbEntity
  8
0
100
AcDbSpline
 62
7
  6
BYLAYER
 70
0
 71
3
 72
15
 73
11
 74
0
 42
0.0000001
 43
0.0000001
 44
0.0000000001
 40
0.0
 40
0.0
 40
0.0
 40
0.0
 40
0.097160485
 40
0.1969758379
 40
0.3036622957
 40
0.4198253711
 40
0.5469753197
 40
0.6858955168
 40
0.8369239523
 40
1.0
 40
1.0
 40
1.0
 40
1.0
 10
6.6685833155
 20
5.0559946355
 30
0.0
 10
6.6634703083
 20
5.0526458027
 30
0.0
 10
6.6537606465
 20
5.0448005956
 30
0.0
 10
6.6412953943
 20
5.0302156947
 30
0.0
 10
6.630524808
 20
5.0129403495
 30
0.0
 10
6.621117845
 20
4.9929921646
 30
0.0
 10
6.6128465097
 20
4.9703882218
 30
0.0
 10
6.6055544109
 20
4.9451666457
 30
0.0
 10
6.5991279251
 20
4.9173914814
 30
0.0
 10
6.5954968125
 20
4.8979630392
 30
0.0
 10
6.5937777778
 20
4.8878494594
 30
0.0
  0
SPLINE
  5
32E
100
AcDbEntity
  8
0
100
AcDbSpline
 62
7
  6
BYLAYER
 70
0
 71
3
 72
11
 73
7
 74
0
 42
0.0000001
 43
0.0000001
 44
0.0000000001
 40
0.0
 40
0.0
 40
0.0
 40
0.0
 40
0.2265629289
 40
0.4737761669
 40
0.7338488786
 40
1.0
 40
1.0
 40
1.0
 40
1.0
 10
7.012164729
 20
4.7725018212
 30
0.0
 10
7.0158665423
 20
4.7358637382
 30
0.0
 10
7.0223998177
 20
4.659122897
 30
0.0
 10
7.0292433054
 20
4.5400296524
 30
0.0
 10
7.0333592801
 20
4.4143745873
 30
0.0
 10
7.0342645273
 20
4.3288413451
 30
0.0
 10
7.0342645273
 20
4.2855822222
 30
0.0
  0
SPLINE
  5
32F
100
AcDbEntity
  8
0
100
AcDbSpline
 62
7
  6
BYLAYER
 70
0
 71
3
 72
17
 73
13
 74
0
 42
0.0000001
 43
0.0000001
 44
0.0000000001
 40
0.0
 40
0.0
 40
0.0
 40
0.0
 40
0.1770166492
 40
0.3395889764
 40
0.4865239199
 40
0.6171454899
 40
0.7313940715
 40
0.8303781912
 40
0.8751120175
 40
0.9175342589
 40
0.9586881511
 40
1.0
 40
1.0
 40
1.0
 40
1.0
 10
7.012164729
 20
4.7725018212
 30
0.0
 10
7.010178355
 20
4.7921616288
 30
0.0
 10
7.005874724
 20
4.8298307908
 30
0.0
 10
6.9978009209
 20
4.8835517273
 30
0.0
 10
6.9881974775
 20
4.9317581796
 30
0.0
 10
6.9768539751
 20
4.9740462854
 30
0.0
 10
6.9634834756
 20
5.0100947177
 30
0.0
 10
6.9497894379
 20
5.0356143452
 30
0.0
 10
6.9371400877
 20
5.0521546998
 30
0.0
 10
6.9270468792
 20
5.0623805152
 30
0.0
 10
6.9158673608
 20
5.0707980483
 30
0.0
 10
6.9076720941
 20
5.0750969054
 30
0.0
 10
6.9034286061
 20
5.0769021876
 30
0.0
  0
SPLINE
  5
330
100
AcDbEntity
  8
0
100
AcDbSpline
 62
7
  6
BYLAYER
 70
0
 71
3
 72
9
 73
5
 74
0
 42
0.0000001
 43
0.0000001
 44
0.0000000001
 40
0.0
 40
0.0
 40
0.0
 40
0.0
 40
0.7517715406
 40
1.0
 40
1.0
 40
1.0
 40
1.0
 10
7.012164729
 20
12.055582164
 30
0.0
 10
7.0174051735
 20
12.0163223901
 30
0.0
 10
7.0248233709
 20
11.9641597707
 30
0.0
 10
7.032387156
 20
11.9120191576
 30
0.0
 10
7.0342645273
 20
11.8990765428
 30
0.0
  0
SPLINE
  5
331
100
AcDbEntity
  8
0
100
AcDbSpline
 62
7
  6
BYLAYER
 70
0
 71
3
 72
46
 73
42
 74
0
 42
0.0000001
 43
0.0000001
 44
0.0000000001
 40
0.0
 40
0.0
 40
0.0
 40
0.0
 40
0.0451336416
 40
0.0958853085
 40
0.1516160836
 40
0.2116266487
 40
0.2751567192
 40
0.3079927077
 40
0.3414037995
 40
0.375284096
 40
0.409526225
 40
0.4440214428
 40
0.461332514
 40
0.4786666261
 40
0.4960099923
 40
0.5133483147
 40
0.5306650171
 40
0.5393272438
 40
0.5479812852
 40
0.5566327886
 40
0.5652820181
 40
0.5696136803
 40
0.5739459462
 40
0.5826058283
 40
0.591266872
 40
0.5999257394
 40
0.6085834805
 40
0.6172353459
 40
0.6345203165
 40
0.6517806177
 40
0.6690046421
 40
0.6861806244
 40
0.7203361312
 40
0.754153348
 40
0.7875279411
 40
0.8203547388
 40
0.8525283781
 40
0.8839445042
 40
0.9144993277
 40
0.9440917736
 40
1.0
 40
1.0
 40
1.0
 40
1.0
 10
7.012164729
 20
12.055582164
 30
0.0
 10
7.0096001155
 20
12.0747954479
 30
0.0
 10
7.0038980675
 20
12.1155802467
 30
0.0
 10
6.9939746974
 20
12.1799372287
 30
0.0
 10
6.9818650624
 20
12.2504131935
 30
0.0
 10
6.9672103182
 20
12.3260046565
 30
0.0
 10
6.9526299347
 20
12.3915757486
 30
0.0
 10
6.9390328718
 20
12.4456312938
 30
0.0
 10
6.9276034901
 20
12.4870911304
 30
0.0
 10
6.9148463873
 20
12.5287970815
 30
0.0
 10
6.900448335
 20
12.5704615175
 30
0.0
 10
6.8866966029
 20
12.6047898209
 30
0.0
 10
6.8741867725
 20
12.6317285803
 30
0.0
 10
6.8638593749
 20
12.6515350453
 30
0.0
 10
6.8523423969
 20
12.670700212
 30
0.0
 10
6.839253878
 20
12.6888307276
 30
0.0
 10
6.8264917274
 20
12.7024992606
 30
0.0
 10
6.8147477733
 20
12.7116847459
 30
0.0
 10
6.8050387162
 20
12.71726834
 30
0.0
 10
6.7944490725
 20
12.7210002315
 30
0.0
 10
6.7851066971
 20
12.7219720719
 30
0.0
 10
6.7776794224
 20
12.7213624565
 30
0.0
 10
6.7703807352
 20
12.7198350394
 30
0.0
 10
6.7616570554
 20
12.7164090704
 30
0.0
 10
6.7521577555
 20
12.7104721288
 30
0.0
 10
6.7435609888
 20
12.7033206196
 30
0.0
 10
6.7357701025
 20
12.6953188669
 30
0.0
 10
6.7262705787
 20
12.6838802567
 30
0.0
 10
6.7157910107
 20
12.6685256738
 30
0.0
 10
6.704809224
 20
12.6491765828
 30
0.0
 10
6.6950297459
 20
12.6292496145
 30
0.0
 10
6.683274524
 20
12.6022474978
 30
0.0
 10
6.6704813222
 20
12.5679627923
 30
0.0
 10
6.6572605871
 20
12.5264821234
 30
0.0
 10
6.6457068348
 20
12.4851018953
 30
0.0
 10
6.6355036484
 20
12.4440984411
 30
0.0
 10
6.6264362504
 20
12.4036919044
 30
0.0
 10
6.6183496908
 20
12.3640740687
 30
0.0
 10
6.6111267783
 20
12.3254174032
 30
0.0
 10
6.6026831549
 20
12.2762938564
 30
0.0
 10
6.5971445229
 20
12.2399893763
 30
0.0
 10
6.5937777778
 20
12.2162154961
 30
0.0
  0
SPLINE
  5
332
100
AcDbEntity
  8
0
100
AcDbSpline
 62
7
  6
BYLAYER
 70
0
 71
3
 72
51
 73
47
 74
0
 42
0.0000001
 43
0.0000001
 44
0.0000000001
 40
0.0
 40
0.0
 40
0.0
 40
0.0
 40
0.067819908
 40
0.1356177534
 40
0.2034041248
 40
0.2711964539
 40
0.3390214353
 40
0.3729573969
 40
0.4069155902
 40
0.4408990643
 40
0.4749025448
 40
0.4919027889
 40
0.5088878112
 40
0.5258288464
 40
0.5426608736
 40
0.5509838414
 40
0.5591826746
 40
0.5671639705
 40
0.5710266437
 40
0.5747193243
 40
0.5781504433
 40
0.5812226998
 40
0.5837706143
 40
0.5855951635
 40
0.5861846951
 40
0.5865720861
 40
0.586832565
 40
0.5871051853
 40
0.5879888363
 40
0.5893531143
 40
0.5911205405
 40
0.5932050364
 40
0.5979975623
 40
0.603374213
 40
0.609157948
 40
0.6152393413
 40
0.6215416516
 40
0.6346417914
 40
0.6482235487
 40
0.6621555151
 40
0.6907765537
 40
0.7500141477
 40
0.8109746601
 40
0.8731249899
 40
0.9361894898
 40
1.0
 40
1.0
 40
1.0
 40
1.0
 10
7.0555555556
 20
12.746926783
 30
0.0
 10
7.0555555556
 20
12.7502070894
 30
0.0
 10
7.0555476669
 20
12.7567666384
 30
0.0
 10
7.0555096932
 20
12.7666048073
 30
0.0
 10
7.0554423687
 20
12.7764414901
 30
0.0
 10
7.0553411604
 20
12.7862791989
 30
0.0
 10
7.0552230355
 20
12.7944793171
 30
0.0
 10
7.055102464
 20
12.8010426671
 30
0.0
 10
7.0549965684
 20
12.805969146
 30
0.0
 10
7.0548718532
 20
12.8108984539
 30
0.0
 10
7.054747959
 20
12.8150072648
 30
0.0
 10
7.0546320622
 20
12.8182937016
 30
0.0
 10
7.0545348161
 20
12.8207549897
 30
0.0
 10
7.0544243121
 20
12.8232075765
 30
0.0
 10
7.0543174217
 20
12.825240901
 30
0.0
 10
7.054218258
 20
12.826851118
 30
0.0
 10
7.0541359001
 20
12.8280334307
 30
0.0
 10
7.0540574448
 20
12.8289997184
 30
0.0
 10
7.0539874543
 20
12.829747929
 30
0.0
 10
7.0539314223
 20
12.8302764048
 30
0.0
 10
7.053870133
 20
12.8307657022
 30
0.0
 10
7.0538040957
 20
12.831198816
 30
0.0
 10
7.0537338247
 20
12.8315514833
 30
0.0
 10
7.0536735115
 20
12.8317853399
 30
0.0
 10
7.0536169411
 20
12.8319084046
 30
0.0
 10
7.0535814945
 20
12.831958247
 30
0.0
 10
7.0535351496
 20
12.8319751658
 30
0.0
 10
7.0534728969
 20
12.8319347033
 30
0.0
 10
7.0534232868
 20
12.8318197166
 30
0.0
 10
7.0533656045
 20
12.8316355606
 30
0.0
 10
7.0533151207
 20
12.8313874605
 30
0.0
 10
7.0532479563
 20
12.8309750622
 30
0.0
 10
7.0531757608
 20
12.830386417
 30
0.0
 10
7.053100974
 20
12.8296184937
 30
0.0
 10
7.0530342054
 20
12.8287871646
 30
0.0
 10
7.0529738726
 20
12.8279105135
 30
0.0
 10
7.052899352
 20
12.8266801549
 30
0.0
 10
7.052818388
 20
12.8250868015
 30
0.0
 10
7.0527350366
 20
12.8231241497
 30
0.0
 10
7.0526364936
 20
12.8204108048
 30
0.0
 10
7.0524926402
 20
12.815489457
 30
0.0
 10
7.0523480967
 20
12.808292723
 30
0.0
 10
7.0522323456
 20
12.7994736352
 30
0.0
 10
7.0521589183
 20
12.7904689943
 30
0.0
 10
7.052119003
 20
12.7813263072
 30
0.0
 10
7.0521111111
 20
12.7751896252
 30
0.0
 10
7.0521111111
 20
12.772103245
 30
0.0
  0
SPLINE
  5
333
100
AcDbEntity
  8
0
100
AcDbSpline
 62
7
  6
BYLAYER
 70
0
 71
3
 72
16
 73
12
 74
0
 42
0.0000001
 43
0.0000001
 44
0.0000000001
 40
0.0
 40
0.0
 40
0.0
 40
0.0
 40
0.0392571897
 40
0.0677123774
 40
0.1033370404
 40
0.1966184724
 40
0.3181924903
 40
0.4646094732
 40
0.631160818
 40
0.812096764
 40
1.0
 40
1.0
 40
1.0
 40
1.0
 10
4.875
 20
11.9572098176
 30
0.0
 10
4.875
 20
11.9575906637
 30
0.0
 10
4.8754264199
 20
11.9582035204
 30
0.0
 10
4.8762229536
 20
11.9587869416
 30
0.0
 10
4.8775735348
 20
11.9595223108
 30
0.0
 10
4.8798687345
 20
11.9603378951
 30
0.0
 10
4.8832733667
 20
11.9611857095
 30
0.0
 10
4.8874300933
 20
11.9619049755
 30
0.0
 10
4.8921918407
 20
11.9624568348
 30
0.0
 10
4.8973761546
 20
11.9628019096
 30
0.0
 10
4.9009548707
 20
11.96288095
 30
0.0
 10
4.9027777778
 20
11.96288095
 30
0.0
  0
SPLINE
  5
334
100
AcDbEntity
  8
0
100
AcDbSpline
 62
7
  6
BYLAYER
 70
0
 71
3
 72
16
 73
12
 74
0
 42
0.0000001
 43
0.0000001
 44
0.0000000001
 40
0.0
 40
0.0
 40
0.0
 40
0.0
 40
0.187903236
 40
0.368839182
 40
0.5353905268
 40
0.6818075097
 40
0.8033815276
 40
0.8966629596
 40
0.9322876226
 40
0.9607428103
 40
1.0
 40
1.0
 40
1.0
 40
1.0
 10
5.125
 20
11.96288095
 30
0.0
 10
5.126822907
 20
11.96288095
 30
0.0
 10
5.1304016231
 20
11.9628019096
 30
0.0
 10
5.135585937
 20
11.9624568348
 30
0.0
 10
5.1403476844
 20
11.9619049755
 30
0.0
 10
5.144504411
 20
11.9611857095
 30
0.0
 10
5.1479090433
 20
11.9603378951
 30
0.0
 10
5.150204243
 20
11.9595223108
 30
0.0
 10
5.1515548241
 20
11.9587869416
 30
0.0
 10
5.1523513579
 20
11.9582035204
 30
0.0
 10
5.1527777778
 20
11.9575906637
 30
0.0
 10
5.1527777778
 20
11.9572098176
 30
0.0
  0
SPLINE
  5
335
100
AcDbEntity
  8
0
100
AcDbSpline
 62
7
  6
BYLAYER
 70
0
 71
3
 72
16
 73
12
 74
0
 42
0.0000001
 43
0.0000001
 44
0.0000000001
 40
0.0
 40
0.0
 40
0.0
 40
0.0
 40
0.1267984367
 40
0.253473551
 40
0.3799517523
 40
0.5061092358
 40
0.6317407766
 40
0.7564930298
 40
0.8797068159
 40
0.9403616454
 40
1.0
 40
1.0
 40
1.0
 40
1.0
 10
17.1915967022
 20
4.564886
 30
0.0
 10
17.1897747944
 20
4.5750106412
 30
0.0
 10
17.1852752932
 20
4.5950961664
 30
0.0
 10
17.1770084121
 20
4.6248009635
 30
0.0
 10
17.1674615251
 20
4.6540669282
 30
0.0
 10
17.1567334253
 20
4.6828290406
 30
0.0
 10
17.1448257783
 20
4.7109737208
 30
0.0
 10
17.131677871
 20
4.738296907
 30
0.0
 10
17.1195129398
 20
4.7602090932
 30
0.0
 10
17.108858673
 20
4.7768526029
 30
0.0
 10
17.1031530508
 20
4.7847812605
 30
0.0
 10
17.1001740598
 20
4.7885939722
 30
0.0
  0
SPLINE
  5
336
100
AcDbEntity
  8
0
100
AcDbSpline
 62
7
  6
BYLAYER
 70
0
 71
3
 72
49
 73
45
 74
0
 42
0.0000001
 43
0.0000001
 44
0.0000000001
 40
0.0
 40
0.0
 40
0.0
 40
0.0
 40
0.0625997139
 40
0.1251966727
 40
0.1877866876
 40
0.2503677307
 40
0.3129369393
 40
0.3442174758
 40
0.3754942381
 40
0.4067670099
 40
0.4380355778
 40
0.4692997795
 40
0.4849303553
 40
0.5005597918
 40
0.5630627453
 40
0.6255468279
 40
0.6880123154
 40
0.7192400571
 40
0.7504635987
 40
0.7816830652
 40
0.8128985067
 40
0.8441097801
 40
0.8597141674
 40
0.8753173141
 40
0.890919
 40
0.9065188569
 40
0.9221162176
 40
0.9377097778
 40
0.9455048441
 40
0.9532978553
 40
0.9610877657
 40
0.9688723316
 40
0.9727622046
 40
0.9766484039
 40
0.9805290278
 40
0.9824622214
 40
0.9844127686
 40
0.9863527792
 40
0.98828141
 40
0.9902270004
 40
0.9921789342
 40
0.9941447878
 40
0.9960936253
 40
1.0
 40
1.0
 40
1.0
 40
1.0
 10
17.1724125603
 20
3.9062659678
 30
0.0
 10
17.1758908969
 20
3.9127878491
 30
0.0
 10
17.1826421205
 20
3.9259420244
 30
0.0
 10
17.1921394997
 20
3.9459818496
 30
0.0
 10
17.2009943637
 20
3.966311694
 30
0.0
 10
17.2091911552
 20
3.9869120302
 30
0.0
 10
17.2154594486
 20
4.0042903115
 30
0.0
 10
17.2201261636
 20
4.0183088329
 30
0.0
 10
17.2234494844
 20
4.0288782069
 30
0.0
 10
17.2265932823
 20
4.0395008733
 30
0.0
 10
17.229554427
 20
4.0501743651
 30
0.0
 10
17.2318671543
 20
4.0591095599
 30
0.0
 10
17.2336225135
 20
4.0662804847
 30
0.0
 10
17.2361593006
 20
4.0770570633
 30
0.0
 10
17.2396022114
 20
4.0933037539
 30
0.0
 10
17.2433836378
 20
4.1151168588
 30
0.0
 10
17.245823796
 20
4.1334009118
 30
0.0
 10
17.2473186333
 20
4.1480754612
 30
0.0
 10
17.2482009045
 20
4.1591013355
 30
0.0
 10
17.2488317102
 20
4.1701430772
 30
0.0
 10
17.2491940033
 20
4.181195544
 30
0.0
 10
17.249252333
 20
4.1904102298
 30
0.0
 10
17.2491339612
 20
4.1977796423
 30
0.0
 10
17.24895555
 20
4.2033040379
 30
0.0
 10
17.2486782341
 20
4.2088238661
 30
0.0
 10
17.2482888632
 20
4.2143363741
 30
0.0
 10
17.2477674487
 20
4.2198371084
 30
0.0
 10
17.2471965928
 20
4.2244059394
 30
0.0
 10
17.2466275304
 20
4.2280437582
 30
0.0
 10
17.2461307632
 20
4.2307594821
 30
0.0
 10
17.245542804
 20
4.2334557901
 30
0.0
 10
17.2449465756
 20
4.2356770978
 30
0.0
 10
17.2443652655
 20
4.2374208069
 30
0.0
 10
17.2438557321
 20
4.2387002476
 30
0.0
 10
17.2433397524
 20
4.2397261316
 30
0.0
 10
17.2428290886
 20
4.2404901758
 30
0.0
 10
17.2423756837
 20
4.2410081215
 30
0.0
 10
17.2418211157
 20
4.2414371924
 30
0.0
 10
17.2411225487
 20
4.2415773114
 30
0.0
 10
17.240433334
 20
4.2414073234
 30
0.0
 10
17.2398721634
 20
4.2409839989
 30
0.0
 10
17.2394002394
 20
4.2404759876
 30
0.0
 10
17.2388462184
 20
4.239735271
 30
0.0
 10
17.2384975035
 20
4.2391360344
 30
0.0
 10
17.2382806404
 20
4.2387289499
 30
0.0
  0
SPLINE
  5
337
100
AcDbEntity
  8
0
100
AcDbSpline
 62
7
  6
BYLAYER
 70
0
 71
3
 72
10
 73
6
 74
0
 42
0.0000001
 43
0.0000001
 44
0.0000000001
 40
0.0
 40
0.0
 40
0.0
 40
0.0
 40
0.2500180534
 40
0.5000547058
 40
1.0
 40
1.0
 40
1.0
 40
1.0
 10
17.1944710704
 20
4.538184911
 30
0.0
 10
17.194518662
 20
4.5404253145
 30
0.0
 10
17.1943367698
 20
4.5449112511
 30
0.0
 10
17.1934427382
 20
4.5538306278
 30
0.0
 10
17.1923903029
 20
4.5604758307
 30
0.0
 10
17.1915967022
 20
4.564886
 30
0.0
  0
SPLINE
  5
338
100
AcDbEntity
  8
0
100
AcDbSpline
 62
7
  6
BYLAYER
 70
0
 71
3
 72
10
 73
6
 74
0
 42
0.0000001
 43
0.0000001
 44
0.0000000001
 40
0.0
 40
0.0
 40
0.0
 40
0.0
 40
0.2499636387
 40
0.499992052
 40
1.0
 40
1.0
 40
1.0
 40
1.0
 10
16.5678683665
 20
4.8312912823
 30
0.0
 10
16.5643027934
 20
4.8335137197
 30
0.0
 10
16.5569385467
 20
4.8375874117
 30
0.0
 10
16.5417523415
 20
4.8448017588
 30
0.0
 10
16.5299961905
 20
4.8494074268
 30
0.0
 10
16.522070245
 20
4.8522024819
 30
0.0
  0
SPLINE
  5
339
100
AcDbEntity
  8
0
100
AcDbSpline
 62
7
  6
BYLAYER
 70
0
 71
3
 72
11
 73
7
 74
0
 42
0.0000001
 43
0.0000001
 44
0.0000000001
 40
0.0
 40
0.0
 40
0.0
 40
0.0
 40
0.2496672338
 40
0.4995944061
 40
0.7497396046
 40
1.0
 40
1.0
 40
1.0
 40
1.0
 10
15.7818469468
 20
4.7407705497
 30
0.0
 10
15.7596382277
 20
4.7076518272
 30
0.0
 10
15.7206335283
 20
4.6375735364
 30
0.0
 10
15.6791655191
 20
4.5247793735
 30
0.0
 10
15.654487852
 20
4.4071097128
 30
0.0
 10
15.6490435428
 20
4.3270787287
 30
0.0
 10
15.6490435428
 20
4.2871082222
 30
0.0
  0
SPLINE
  5
33A
100
AcDbEntity
  8
0
100
AcDbSpline
 62
7
  6
BYLAYER
 70
0
 71
3
 72
8
 73
4
 74
0
 42
0.0000001
 43
0.0000001
 44
0.0000000001
 40
0.0
 40
0.0
 40
0.0
 40
0.0
 40
1.0
 40
1.0
 40
1.0
 40
1.0
 10
16.2043348002
 20
4.7959094225
 30
0.0
 10
16.2246280481
 20
4.8001746523
 30
0.0
 10
16.2449584928
 20
4.8043073887
 30
0.0
 10
16.2654065571
 20
4.8077548171
 30
0.0
  0
SPLINE
  5
33B
100
AcDbEntity
  8
0
100
AcDbSpline
 62
7
  6
BYLAYER
 70
0
 71
3
 72
10
 73
6
 74
0
 42
0.0000001
 43
0.0000001
 44
0.0000000001
 40
0.0
 40
0.0
 40
0.0
 40
0.0
 40
0.249840323
 40
0.4998775909
 40
1.0
 40
1.0
 40
1.0
 40
1.0
 10
17.2382806404
 20
4.2387289499
 30
0.0
 10
17.2377085481
 20
4.237655047
 30
0.0
 10
17.2367696388
 20
4.2353997966
 30
0.0
 10
17.2352114561
 20
4.230786338
 30
0.0
 10
17.2342378091
 20
4.2272617724
 30
0.0
 10
17.233619813
 20
4.2249057621
 30
0.0
  0
SPLINE
  5
33C
100
AcDbEntity
  8
0
100
AcDbSpline
 62
7
  6
BYLAYER
 70
0
 71
3
 72
16
 73
12
 74
0
 42
0.0000001
 43
0.0000001
 44
0.0000000001
 40
0.0
 40
0.0
 40
0.0
 40
0.0
 40
0.1695806314
 40
0.3266422632
 40
0.4703548124
 40
0.600324648
 40
0.7167330619
 40
0.8205509971
 40
0.9138076513
 40
0.9575445224
 40
1.0
 40
1.0
 40
1.0
 40
1.0
 10
16.8343422968
 20
12.8650018512
 30
0.0
 10
16.8393409315
 20
12.8811774391
 30
0.0
 10
16.8498866241
 20
12.9120642216
 30
0.0
 10
16.8681357847
 20
12.9553781215
 30
0.0
 10
16.8880547465
 20
12.9935562627
 30
0.0
 10
16.9094391101
 20
13.0261971757
 30
0.0
 10
16.9320999248
 20
13.052966445
 30
0.0
 10
16.9558479725
 20
13.0735738812
 30
0.0
 10
16.9768989861
 20
13.0856221566
 30
0.0
 10
16.9938399095
 20
13.0915732014
 30
0.0
 10
17.0022846068
 20
13.093374701
 30
0.0
 10
17.0064801198
 20
13.0939775568
 30
0.0
  0
SPLINE
  5
33D
100
AcDbEntity
  8
0
100
AcDbSpline
 62
7
  6
BYLAYER
 70
0
 71
3
 72
28
 73
24
 74
0
 42
0.0000001
 43
0.0000001
 44
0.0000000001
 40
0.0
 40
0.0
 40
0.0
 40
0.0
 40
0.0664603565
 40
0.1373923798
 40
0.2117720521
 40
0.2884660258
 40
0.3662775047
 40
0.4439784993
 40
0.520344123
 40
0.5941863228
 40
0.6643892219
 40
0.7299479885
 40
0.7900141624
 40
0.8177885892
 40
0.8439755927
 40
0.8685440253
 40
0.8914899983
 40
0.9128424729
 40
0.9326699979
 40
0.9510907194
 40
0.9682806372
 40
0.9844811069
 40
1.0
 40
1.0
 40
1.0
 40
1.0
 10
16.8343422968
 20
12.8650018512
 30
0.0
 10
16.8273793645
 20
12.842469794
 30
0.0
 10
16.8148792601
 20
12.7952920839
 30
0.0
 10
16.8005626236
 20
12.721474242
 30
0.0
 10
16.790252754
 20
12.6433277052
 30
0.0
 10
16.7841468094
 20
12.562297863
 30
0.0
 10
16.7823600598
 20
12.4798803092
 30
0.0
 10
16.7849263611
 20
12.3975999144
 30
0.0
 10
16.791796949
 20
12.3169780516
 30
0.0
 10
16.8028417866
 20
12.2395043244
 30
0.0
 10
16.8178520239
 20
12.1666024661
 30
0.0
 10
16.8365454598
 20
12.0996135493
 30
0.0
 10
16.855364374
 20
12.04844918
 30
0.0
 10
16.8721612066
 20
12.0116190454
 30
0.0
 10
16.8851151674
 20
11.9869284899
 30
0.0
 10
16.8986959922
 20
11.9645557961
 30
0.0
 10
16.9128447453
 20
11.944602056
 30
0.0
 10
16.9275007323
 20
11.9271570507
 30
0.0
 10
16.9426056865
 20
11.912301406
 30
0.0
 10
16.9581000957
 20
11.9001063905
 30
0.0
 10
16.9739278254
 20
11.8906384564
 30
0.0
 10
16.9900190267
 20
11.8839640939
 30
0.0
 10
17.0010386511
 20
11.8813783825
 30
0.0
 10
17.0064896483
 20
11.8805959755
 30
0.0
  0
SPLINE
  5
33E
100
AcDbEntity
  8
0
100
AcDbSpline
 62
7
  6
BYLAYER
 70
0
 71
3
 72
20
 73
16
 74
0
 42
0.0000001
 43
0.0000001
 44
0.0000000001
 40
0.0
 40
0.0
 40
0.0
 40
0.0
 40
0.1711475251
 40
0.3324033959
 40
0.4812084817
 40
0.5502899629
 40
0.6155351348
 40
0.6768018182
 40
0.7340072571
 40
0.7871511803
 40
0.836326519
 40
0.8817461046
 40
0.923775844
 40
0.9629577292
 40
1.0
 40
1.0
 40
1.0
 40
1.0
 10
16.8549484146
 20
12.2958728984
 30
0.0
 10
16.8584954856
 20
12.2679733679
 30
0.0
 10
16.8670168935
 20
12.2139735898
 30
0.0
 10
16.8846115664
 20
12.1368178311
 30
0.0
 10
16.9031463156
 20
12.0772450566
 30
0.0
 10
16.9201221717
 20
12.0339077268
 30
0.0
 10
16.9334051728
 20
12.0046212914
 30
0.0
 10
16.9474820582
 20
11.9778920981
 30
0.0
 10
16.9622844128
 20
11.953859468
 30
0.0
 10
16.977736675
 20
11.932646268
 30
0.0
 10
16.9937670007
 20
11.9143626153
 30
0.0
 10
17.0103019259
 20
11.8991040916
 30
0.0
 10
17.0272758773
 20
11.8869571622
 30
0.0
 10
17.0446090434
 20
11.8780123372
 30
0.0
 10
17.0566044103
 20
11.8741538873
 30
0.0
 10
17.0625463516
 20
11.8728327811
 30
0.0
  0
SPLINE
  5
33F
100
AcDbEntity
  8
02__ASM_ALL_AXES
100
AcDbSpline
 62
7
  6
BYLAYER
 70
0
 71
3
 72
46
 73
42
 74
0
 42
0.0000001
 43
0.0000001
 44
0.0000000001
 40
0.0
 40
0.0
 40
0.0
 40
0.0
 40
0.0625
 40
0.125
 40
0.140625
 40
0.15625
 40
0.171875
 40
0.1875
 40
0.21875
 40
0.25
 40
0.28125
 40
0.3125
 40
0.328125
 40
0.3359375
 40
0.34375
 40
0.359375
 40
0.375
 40
0.4375
 40
0.46875
 40
0.484375
 40
0.5
 40
0.515625
 40
0.53125
 40
0.5625
 40
0.625
 40
0.640625
 40
0.65625
 40
0.6640625
 40
0.671875
 40
0.6875
 40
0.71875
 40
0.75
 40
0.78125
 40
0.8125
 40
0.828125
 40
0.8359375
 40
0.84375
 40
0.859375
 40
0.875
 40
0.9375
 40
1.0
 40
1.0
 40
1.0
 40
1.0
 10
18.3533299451
 20
12.8702472832
 30
0.0
 10
18.3517872712
 20
12.8731396269
 30
0.0
 10
18.3487012065
 20
12.8789233013
 30
0.0
 10
18.3452326098
 20
12.8854344929
 30
0.0
 10
18.3429155073
 20
12.8897686403
 30
0.0
 10
18.3417652902
 20
12.8919474888
 30
0.0
 10
18.3405826773
 20
12.8940805676
 30
0.0
 10
18.3388516821
 20
12.8967067396
 30
0.0
 10
18.3367408489
 20
12.9000646069
 30
0.0
 10
18.334185144
 20
12.9040602164
 30
0.0
 10
18.3316356024
 20
12.9080709075
 30
0.0
 10
18.329509361
 20
12.9113910707
 30
0.0
 10
18.3280217047
 20
12.9137549534
 30
0.0
 10
18.3271708806
 20
12.9150441929
 30
0.0
 10
18.3263174017
 20
12.9161018031
 30
0.0
 10
18.3252514221
 20
12.9175029183
 30
0.0
 10
18.3226926933
 20
12.9208010988
 30
0.0
 10
18.3197038059
 20
12.9246631396
 30
0.0
 10
18.3167263605
 20
12.9285391239
 30
0.0
 10
18.315007888
 20
12.9307203569
 30
0.0
 10
18.31376699
 20
12.9324531431
 30
0.0
 10
18.3123428038
 20
12.933815291
 30
0.0
 10
18.3105078408
 20
12.9357606382
 30
0.0
 10
18.3072666696
 20
12.9391061552
 30
0.0
 10
18.3040375405
 20
12.9424656965
 30
0.0
 10
18.3012653296
 20
12.9453572803
 30
0.0
 10
18.3001118173
 20
12.9465354671
 30
0.0
 10
18.2991856646
 20
12.9475407543
 30
0.0
 10
18.2982716231
 20
12.9483164022
 30
0.0
 10
18.2966776591
 20
12.9495670272
 30
0.0
 10
18.2943977373
 20
12.9514097276
 30
0.0
 10
18.2916625968
 20
12.9535957403
 30
0.0
 10
18.2889289225
 20
12.9557929149
 30
0.0
 10
18.2866453352
 20
12.9576077107
 30
0.0
 10
18.285057786
 20
12.9589071687
 30
0.0
 10
18.2841334809
 20
12.9596046838
 30
0.0
 10
18.2831446446
 20
12.9601327184
 30
0.0
 10
18.2819306568
 20
12.960850692
 30
0.0
 10
18.2789989275
 20
12.9625261383
 30
0.0
 10
18.2746090217
 20
12.9650594993
 30
0.0
 10
18.2707037591
 20
12.967303171
 30
0.0
 10
18.2687515183
 20
12.9684260324
 30
0.0
  0
SPLINE
  5
340
100
AcDbEntity
  8
02__ASM_ALL_AXES
100
AcDbSpline
 62
7
  6
BYLAYER
 70
0
 71
3
 72
40
 73
36
 74
0
 42
0.0000001
 43
0.0000001
 44
0.0000000001
 40
0.0
 40
0.0
 40
0.0
 40
0.0
 40
0.0625
 40
0.125
 40
0.15625
 40
0.171875
 40
0.1875
 40
0.21875
 40
0.25
 40
0.28125
 40
0.3125
 40
0.328125
 40
0.34375
 40
0.375
 40
0.4375
 40
0.46875
 40
0.484375
 40
0.5
 40
0.515625
 40
0.53125
 40
0.5625
 40
0.625
 40
0.640625
 40
0.65625
 40
0.671875
 40
0.6875
 40
0.71875
 40
0.75
 40
0.78125
 40
0.8125
 40
0.828125
 40
0.84375
 40
0.875
 40
0.9375
 40
1.0
 40
1.0
 40
1.0
 40
1.0
 10
18.2687515172
 20
12.9684260329
 30
0.0
 10
18.2672726019
 20
12.9689878992
 30
0.0
 10
18.2643149728
 20
12.9701161015
 30
0.0
 10
18.2606169293
 20
12.9715040055
 30
0.0
 10
18.2580301493
 20
12.9725166044
 30
0.0
 10
18.2565491193
 20
12.973031538
 30
0.0
 10
18.2550572237
 20
12.9733064613
 30
0.0
 10
18.2531962804
 20
12.9737330226
 30
0.0
 10
18.2509606015
 20
12.9742069575
 30
0.0
 10
18.2487288287
 20
12.9746999956
 30
0.0
 10
18.2468581199
 20
12.9750787988
 30
0.0
 10
18.2453857554
 20
12.9754492383
 30
0.0
 10
18.2438252993
 20
12.9755757398
 30
0.0
 10
18.2410530565
 20
12.9756849118
 30
0.0
 10
18.2379052149
 20
12.9758505561
 30
0.0
 10
18.2351386538
 20
12.9760004002
 30
0.0
 10
18.2335684576
 20
12.976057178
 30
0.0
 10
18.2323622085
 20
12.9761849019
 30
0.0
 10
18.2312650192
 20
12.9759864876
 30
0.0
 10
18.2297640715
 20
12.9758357833
 30
0.0
 10
18.2271550052
 20
12.9755181303
 30
0.0
 10
18.2245402112
 20
12.9752251486
 30
0.0
 10
18.2222986668
 20
12.974959669
 30
0.0
 10
18.2211817523
 20
12.974841536
 30
0.0
 10
18.2200494655
 20
12.9746678463
 30
0.0
 10
18.2184664627
 20
12.9741721454
 30
0.0
 10
18.2165128079
 20
12.9736437394
 30
0.0
 10
18.2141578791
 20
12.9729679678
 30
0.0
 10
18.2118049644
 20
12.9723129814
 30
0.0
 10
18.2098462743
 20
12.9717326123
 30
0.0
 10
18.208273342
 20
12.9713408375
 30
0.0
 10
18.206722673
 20
12.9706866187
 30
0.0
 10
18.2040193711
 20
12.9694198515
 30
0.0
 10
18.2001520539
 20
12.9676743338
 30
0.0
 10
18.1970598633
 20
12.9662583693
 30
0.0
 10
18.1955135601
 20
12.9655528308
 30
0.0
  0
SPLINE
  5
341
100
AcDbEntity
  8
02__ASM_ALL_AXES
100
AcDbSpline
 62
7
  6
BYLAYER
 70
0
 71
3
 72
39
 73
35
 74
0
 42
0.0000001
 43
0.0000001
 44
0.0000000001
 40
0.0
 40
0.0
 40
0.0
 40
0.0
 40
0.0625
 40
0.125
 40
0.15625
 40
0.171875
 40
0.1875
 40
0.21875
 40
0.25
 40
0.28125
 40
0.3125
 40
0.328125
 40
0.34375
 40
0.375
 40
0.4375
 40
0.46875
 40
0.484375
 40
0.5
 40
0.515625
 40
0.53125
 40
0.5625
 40
0.625
 40
0.65625
 40
0.671875
 40
0.6875
 40
0.71875
 40
0.75
 40
0.78125
 40
0.8125
 40
0.828125
 40
0.84375
 40
0.875
 40
0.9375
 40
1.0
 40
1.0
 40
1.0
 40
1.0
 10
18.1955135613
 20
12.9655528314
 30
0.0
 10
18.1939815087
 20
12.964581676
 30
0.0
 10
18.1909168731
 20
12.9626441901
 30
0.0
 10
18.1870887308
 20
12.9601982084
 30
0.0
 10
18.1844041578
 20
12.9585303495
 30
0.0
 10
18.1828776747
 20
12.9575085331
 30
0.0
 10
18.1813796778
 20
12.9562276463
 30
0.0
 10
18.1794973279
 20
12.9547160074
 30
0.0
 10
18.1772430772
 20
12.9528611921
 30
0.0
 10
18.1749863156
 20
12.95102662
 30
0.0
 10
18.1731102429
 20
12.9494643731
 30
0.0
 10
18.1715996916
 20
12.9482847022
 30
0.0
 10
18.1701242632
 20
12.9468512744
 30
0.0
 10
18.1675583942
 20
12.9442259766
 30
0.0
 10
18.1646202545
 20
12.9412686586
 30
0.0
 10
18.1620482613
 20
12.9386848707
 30
0.0
 10
18.1605833316
 20
12.9371802831
 30
0.0
 10
18.1594706125
 20
12.9361351502
 30
0.0
 10
18.1584115905
 20
12.9347708544
 30
0.0
 10
18.1569808785
 20
12.9330628852
 30
0.0
 10
18.1544853607
 20
12.9300245454
 30
0.0
 10
18.1516329661
 20
12.9265575807
 30
0.0
 10
18.1491298752
 20
12.9235591432
 30
0.0
 10
18.1477121457
 20
12.92178277
 30
0.0
 10
18.1463422958
 20
12.9197667914
 30
0.0
 10
18.1446134465
 20
12.9173295819
 30
0.0
 10
18.1425463849
 20
12.914367072
 30
0.0
 10
18.1404755522
 20
12.9114235743
 30
0.0
 10
18.1387561306
 20
12.9089388343
 30
0.0
 10
18.1373674254
 20
12.9070179169
 30
0.0
 10
18.1360263739
 20
12.9048549614
 30
0.0
 10
18.1337016653
 20
12.9009573805
 30
0.0
 10
18.1303690049
 20
12.8954485704
 30
0.0
 10
18.1277064265
 20
12.8910234918
 30
0.0
 10
18.1263746935
 20
12.8888132063
 30
0.0
  0
LINE
  5
342
100
AcDbEntity
  8
02__ASM_ALL_AXES
100
AcDbLine
 62
7
  6
BYLAYER
 10
18.1263746927
 20
12.8888132048
 11
18.123173377
 21
12.8829763243
  0
LINE
  5
343
100
AcDbEntity
  8
02__ASM_ALL_AXES
100
AcDbLine
 62
7
  6
BYLAYER
 10
18.123173377
 20
12.8829763243
 11
18.1220119212
 21
12.8807948149
  0
SPLINE
  5
344
100
AcDbEntity
  8
02__ASM_ALL_AXES
100
AcDbSpline
 62
7
  6
BYLAYER
 70
0
 71
3
 72
61
 73
57
 74
0
 42
0.0000001
 43
0.0000001
 44
0.0000000001
 40
0.0
 40
0.0
 40
0.0
 40
0.0
 40
0.0625
 40
0.09375
 40
0.125
 40
0.140625
 40
0.15625
 40
0.1640625
 40
0.16796875
 40
0.171875
 40
0.1796875
 40
0.1875
 40
0.203125
 40
0.21875
 40
0.25
 40
0.28125
 40
0.3125
 40
0.3203125
 40
0.328125
 40
0.3359375
 40
0.34375
 40
0.359375
 40
0.375
 40
0.40625
 40
0.4375
 40
0.453125
 40
0.46875
 40
0.484375
 40
0.4921875
 40
0.49609375
 40
0.5
 40
0.50390625
 40
0.5078125
 40
0.515625
 40
0.53125
 40
0.546875
 40
0.5625
 40
0.59375
 40
0.625
 40
0.640625
 40
0.65625
 40
0.6640625
 40
0.671875
 40
0.6875
 40
0.71875
 40
0.75
 40
0.78125
 40
0.8125
 40
0.828125
 40
0.8359375
 40
0.84375
 40
0.859375
 40
0.875
 40
0.90625
 40
0.9375
 40
1.0
 40
1.0
 40
1.0
 40
1.0
 10
18.1220119212
 20
12.880794815
 30
0.0
 10
18.1197827913
 20
12.8760087195
 30
0.0
 10
18.1164391898
 20
12.8688291721
 30
0.0
 10
18.1119806809
 20
12.8592580593
 30
0.0
 10
18.109194891
 20
12.8532727449
 30
0.0
 10
18.106964485
 20
12.8484921744
 30
0.0
 10
18.1055745275
 20
12.8454867998
 30
0.0
 10
18.1045934481
 20
12.8434181452
 30
0.0
 10
18.1040455189
 20
12.8421811278
 30
0.0
 10
18.1035453859
 20
12.8407371844
 30
0.0
 10
18.1029038542
 20
12.8390031064
 30
0.0
 10
18.1018865502
 20
12.8361889855
 30
0.0
 10
18.1006117825
 20
12.8326848997
 30
0.0
 10
18.0985739415
 20
12.8270707371
 30
0.0
 10
18.0960257857
 20
12.8200559622
 30
0.0
 10
18.0929694196
 20
12.8116356142
 30
0.0
 10
18.090673908
 20
12.8053246935
 30
0.0
 10
18.089148518
 20
12.8011109973
 30
0.0
 10
18.0883769998
 20
12.799015534
 30
0.0
 10
18.087639784
 20
12.7968758146
 30
0.0
 10
18.0868200456
 20
12.7938122798
 30
0.0
 10
18.0857394873
 20
12.7900549613
 30
0.0
 10
18.0840418272
 20
12.7840029626
 30
0.0
 10
18.081909045
 20
12.7764517321
 30
0.0
 10
18.0797800497
 20
12.7688957917
 30
0.0
 10
18.0780763307
 20
12.7628513288
 30
0.0
 10
18.0767978375
 20
12.7583199393
 30
0.0
 10
18.0757349907
 20
12.7545371353
 30
0.0
 10
18.0749859211
 20
12.7519022727
 30
0.0
 10
18.0745658152
 20
12.7503761733
 30
0.0
 10
18.0742283849
 20
12.7492892468
 30
0.0
 10
18.0739763909
 20
12.74798196
 30
0.0
 10
18.0736105978
 20
12.7463157749
 30
0.0
 10
18.0729843439
 20
12.7433641397
 30
0.0
 10
18.0720824432
 20
12.7391662327
 30
0.0
 10
18.0710032382
 20
12.7341207681
 30
0.0
 10
18.0695633657
 20
12.7273960968
 30
0.0
 10
18.0677628289
 20
12.7189905873
 30
0.0
 10
18.0659662426
 20
12.7105804908
 30
0.0
 10
18.0645200493
 20
12.7038631588
 30
0.0
 10
18.0636365138
 20
12.6996402568
 30
0.0
 10
18.0628831116
 20
12.6963182155
 30
0.0
 10
18.0622997366
 20
12.6927907088
 30
0.0
 10
18.0613578666
 20
12.6865220808
 30
0.0
 10
18.0599707241
 20
12.6776170396
 30
0.0
 10
18.0583252454
 20
12.6669085761
 30
0.0
 10
18.0566699799
 20
12.6562095419
 30
0.0
 10
18.0553073045
 20
12.6472809276
 30
0.0
 10
18.0543226171
 20
12.6410535525
 30
0.0
 10
18.05380775
 20
12.6374600412
 30
0.0
 10
18.0534728884
 20
12.633734754
 30
0.0
 10
18.0529926778
 20
12.629123265
 30
0.0
 10
18.0522587852
 20
12.6217196668
 30
0.0
 10
18.0513296206
 20
12.6124738067
 30
0.0
 10
18.0498495812
 20
12.5976755813
 30
0.0
 10
18.0487380613
 20
12.5865780034
 30
0.0
 10
18.0479973792
 20
12.5791793756
 30
0.0
  0
LINE
  5
345
100
AcDbEntity
  8
02__ASM_ALL_AXES
100
AcDbLine
 62
7
  6
BYLAYER
 10
18.0479973789
 20
12.5791793719
 11
18.0476221319
 21
12.5739926646
  0
SPLINE
  5
346
100
AcDbEntity
  8
02__ASM_ALL_AXES
100
AcDbSpline
 62
7
  6
BYLAYER
 70
0
 71
3
 72
43
 73
39
 74
0
 42
0.0000001
 43
0.0000001
 44
0.0000000001
 40
0.0
 40
0.0
 40
0.0
 40
0.0
 40
0.0625
 40
0.125
 40
0.15625
 40
0.171875
 40
0.1875
 40
0.21875
 40
0.25
 40
0.28125
 40
0.3125
 40
0.328125
 40
0.34375
 40
0.359375
 40
0.375
 40
0.40625
 40
0.4375
 40
0.46875
 40
0.484375
 40
0.4921875
 40
0.5
 40
0.5078125
 40
0.515625
 40
0.53125
 40
0.5625
 40
0.625
 40
0.65625
 40
0.671875
 40
0.6875
 40
0.71875
 40
0.75
 40
0.78125
 40
0.8125
 40
0.828125
 40
0.84375
 40
0.875
 40
0.9375
 40
1.0
 40
1.0
 40
1.0
 40
1.0
 10
18.0475470381
 20
12.5729156897
 30
0.0
 10
18.0472587633
 20
12.5672060234
 30
0.0
 10
18.0466782859
 20
12.5557875169
 30
0.0
 10
18.0459723283
 20
12.5415102535
 30
0.0
 10
18.0454420711
 20
12.5315237584
 30
0.0
 10
18.0451950385
 20
12.5258054186
 30
0.0
 10
18.0451589159
 20
12.5200426207
 30
0.0
 10
18.0450409062
 20
12.5128548288
 30
0.0
 10
18.0449326405
 20
12.5042207795
 30
0.0
 10
18.0448075614
 20
12.4955963975
 30
0.0
 10
18.0447315852
 20
12.4883844372
 30
0.0
 10
18.0446113956
 20
12.4826699762
 30
0.0
 10
18.0446825256
 20
12.4782337939
 30
0.0
 10
18.0447988838
 20
12.4737554496
 30
0.0
 10
18.04493819
 20
12.4677990006
 30
0.0
 10
18.0451180385
 20
12.4603487684
 30
0.0
 10
18.0453301779
 20
12.4514088954
 30
0.0
 10
18.0455116022
 20
12.4439638771
 30
0.0
 10
18.0456304617
 20
12.4387419474
 30
0.0
 10
18.0457109389
 20
12.4357743823
 30
0.0
 10
18.0457359495
 20
12.4335025008
 30
0.0
 10
18.0458960704
 20
12.4314072523
 30
0.0
 10
18.046062422
 20
12.4285519713
 30
0.0
 10
18.0463756521
 20
12.4235839867
 30
0.0
 10
18.0469842358
 20
12.4136264161
 30
0.0
 10
18.0477012446
 20
12.4022629975
 30
0.0
 10
18.0482901069
 20
12.3922978697
 30
0.0
 10
18.0486818924
 20
12.3866331283
 30
0.0
 10
18.0492808463
 20
12.3810785803
 30
0.0
 10
18.0499579038
 20
12.3740977842
 30
0.0
 10
18.0508034677
 20
12.3657360722
 30
0.0
 10
18.051631268
 20
12.3573735648
 30
0.0
 10
18.0523527344
 20
12.3503947571
 30
0.0
 10
18.0528628706
 20
12.3448362324
 30
0.0
 10
18.0536158482
 20
12.3391876629
 30
0.0
 10
18.055046351
 20
12.3292607862
 30
0.0
 10
18.0570305622
 20
12.3151015758
 30
0.0
 10
18.0586360231
 20
12.3037674899
 30
0.0
 10
18.0594364921
 20
12.2981012867
 30
0.0
  0
LINE
  5
347
100
AcDbEntity
  8
02__ASM_ALL_AXES
100
AcDbLine
 62
7
  6
BYLAYER
 10
18.0601836421
 20
12.2935929434
 11
18.0622669231
 21
12.2816379198
  0
SPLINE
  5
348
100
AcDbEntity
  8
02__ASM_ALL_AXES
100
AcDbSpline
 62
7
  6
BYLAYER
 70
0
 71
3
 72
38
 73
34
 74
0
 42
0.0000001
 43
0.0000001
 44
0.0000000001
 40
0.0
 40
0.0
 40
0.0
 40
0.0
 40
0.0625
 40
0.125
 40
0.15625
 40
0.171875
 40
0.1875
 40
0.25
 40
0.28125
 40
0.3125
 40
0.328125
 40
0.34375
 40
0.375
 40
0.4375
 40
0.46875
 40
0.484375
 40
0.5
 40
0.515625
 40
0.53125
 40
0.5625
 40
0.625
 40
0.65625
 40
0.671875
 40
0.6875
 40
0.71875
 40
0.75
 40
0.78125
 40
0.8125
 40
0.828125
 40
0.84375
 40
0.875
 40
0.9375
 40
1.0
 40
1.0
 40
1.0
 40
1.0
 10
18.0626755659
 20
12.2793896776
 30
0.0
 10
18.0634745723
 20
12.2754086384
 30
0.0
 10
18.0650695914
 20
12.2674468711
 30
0.0
 10
18.067078334
 20
12.2574931056
 30
0.0
 10
18.0684569486
 20
12.2505283297
 30
0.0
 10
18.0692873896
 20
12.2465440219
 30
0.0
 10
18.0707651356
 20
12.2405428026
 30
0.0
 10
18.0724123742
 20
12.233553012
 30
0.0
 10
18.0743261569
 20
12.2255495568
 30
0.0
 10
18.0755319801
 20
12.2205719114
 30
0.0
 10
18.0764655309
 20
12.2165347421
 30
0.0
 10
18.0775157454
 20
12.2126981736
 30
0.0
 10
18.0794075284
 20
12.2060764352
 30
0.0
 10
18.0815496023
 20
12.1984755871
 30
0.0
 10
18.0834224143
 20
12.1918195995
 30
0.0
 10
18.0845051505
 20
12.1880417438
 30
0.0
 10
18.0852799582
 20
12.1851331536
 30
0.0
 10
18.0861974647
 20
12.1825125741
 30
0.0
 10
18.0873711335
 20
12.1789182485
 30
0.0
 10
18.0894471769
 20
12.1726724479
 30
0.0
 10
18.0918171171
 20
12.1655314884
 30
0.0
 10
18.093875729
 20
12.1592464965
 30
0.0
 10
18.0950792803
 20
12.155719356
 30
0.0
 10
18.0963863974
 20
12.1524363792
 30
0.0
 10
18.0979843939
 20
12.1482485799
 30
0.0
 10
18.0999189604
 20
12.1432605512
 30
0.0
 10
18.1018430841
 20
12.1382577258
 30
0.0
 10
18.1034671874
 20
12.1341069183
 30
0.0
 10
18.1047220908
 20
12.1307499579
 30
0.0
 10
18.1061379776
 20
12.127523684
 30
0.0
 10
18.1086905615
 20
12.1219383637
 30
0.0
 10
18.112297751
 20
12.1139274089
 30
0.0
 10
18.1151954977
 20
12.1075283748
 30
0.0
 10
18.1166428717
 20
12.1043276416
 30
0.0
  0
SPLINE
  5
349
100
AcDbEntity
  8
02__ASM_ALL_AXES
100
AcDbSpline
 62
7
  6
BYLAYER
 70
0
 71
3
 72
28
 73
24
 74
0
 42
0.0000001
 43
0.0000001
 44
0.0000000001
 40
0.0
 40
0.0
 40
0.0
 40
0.0
 40
0.125
 40
0.15625
 40
0.1875
 40
0.25
 40
0.3125
 40
0.34375
 40
0.375
 40
0.4375
 40
0.46875
 40
0.5
 40
0.53125
 40
0.5625
 40
0.625
 40
0.65625
 40
0.6875
 40
0.75
 40
0.8125
 40
0.84375
 40
0.875
 40
0.9375
 40
1.0
 40
1.0
 40
1.0
 40
1.0
 10
18.1166428733
 20
12.1043276382
 30
0.0
 10
18.1183645934
 20
12.1009797632
 30
0.0
 10
18.1205469166
 20
12.0967902597
 30
0.0
 10
18.1230751854
 20
12.0917768344
 30
0.0
 10
18.124953805
 20
12.0884047292
 30
0.0
 10
18.1273727359
 20
12.0841873499
 30
0.0
 10
18.1297588904
 20
12.0799432654
 30
0.0
 10
18.1316899524
 20
12.0766138886
 30
0.0
 10
18.1336825855
 20
12.0735316287
 30
0.0
 10
18.1356553646
 20
12.0703687246
 30
0.0
 10
18.1376415273
 20
12.0672624156
 30
0.0
 10
18.1391108525
 20
12.0648435427
 30
0.0
 10
18.1406546734
 20
12.0627529368
 30
0.0
 10
18.142686195
 20
12.0598463837
 30
0.0
 10
18.1447301634
 20
12.0569977687
 30
0.0
 10
18.1467569711
 20
12.0540646482
 30
0.0
 10
18.1488358259
 20
12.0513922988
 30
0.0
 10
18.1514581842
 20
12.0481443205
 30
0.0
 10
18.1540512219
 20
12.0448480813
 30
0.0
 10
18.1561769896
 20
12.0422529492
 30
0.0
 10
18.1584842547
 20
12.0397843465
 30
0.0
 10
18.1613056479
 20
12.0366548905
 30
0.0
 10
18.1635818674
 20
12.0341646446
 30
0.0
 10
18.164717589
 20
12.0329178568
 30
0.0
  0
SPLINE
  5
34A
100
AcDbEntity
  8
02__ASM_ALL_AXES
100
AcDbSpline
 62
7
  6
BYLAYER
 70
0
 71
3
 72
71
 73
67
 74
0
 42
0.0000001
 43
0.0000001
 44
0.0000000001
 40
0.0
 40
0.0
 40
0.0
 40
0.0
 40
0.0625
 40
0.09375
 40
0.125
 40
0.140625
 40
0.15625
 40
0.1640625
 40
0.16796875
 40
0.171875
 40
0.1796875
 40
0.1875
 40
0.203125
 40
0.21875
 40
0.25
 40
0.28125
 40
0.296875
 40
0.3125
 40
0.3203125
 40
0.328125
 40
0.33203125
 40
0.3359375
 40
0.34375
 40
0.359375
 40
0.375
 40
0.390625
 40
0.40625
 40
0.4375
 40
0.453125
 40
0.46875
 40
0.484375
 40
0.4921875
 40
0.49609375
 40
0.5
 40
0.50390625
 40
0.5078125
 40
0.515625
 40
0.53125
 40
0.546875
 40
0.5625
 40
0.59375
 40
0.609375
 40
0.625
 40
0.640625
 40
0.65625
 40
0.6640625
 40
0.66796875
 40
0.671875
 40
0.6796875
 40
0.6875
 40
0.703125
 40
0.71875
 40
0.75
 40
0.78125
 40
0.796875
 40
0.8125
 40
0.8203125
 40
0.828125
 40
0.83203125
 40
0.8359375
 40
0.84375
 40
0.859375
 40
0.875
 40
0.90625
 40
0.9375
 40
1.0
 40
1.0
 40
1.0
 40
1.0
 10
18.1647175873
 20
12.0329178587
 30
0.0
 10
18.1676393788
 20
12.0304858303
 30
0.0
 10
18.1720221138
 20
12.0268382704
 30
0.0
 10
18.1778655695
 20
12.021972927
 30
0.0
 10
18.1815181272
 20
12.0189361086
 30
0.0
 10
18.184439266
 20
12.0164974854
 30
0.0
 10
18.1862670473
 20
12.0149942565
 30
0.0
 10
18.1875423467
 20
12.0139000896
 30
0.0
 10
18.1882775784
 20
12.0133404181
 30
0.0
 10
18.1890372556
 20
12.0130277464
 30
0.0
 10
18.1899784819
 20
12.0125523343
 30
0.0
 10
18.1914891218
 20
12.0118389389
 30
0.0
 10
18.1933758191
 20
12.0109310043
 30
0.0
 10
18.1963954358
 20
12.0094873993
 30
0.0
 10
18.2001696094
 20
12.0076794766
 30
0.0
 10
18.2039440457
 20
12.0058738567
 30
0.0
 10
18.2069632422
 20
12.0044265673
 30
0.0
 10
18.20885099
 20
12.0035278438
 30
0.0
 10
18.2103594764
 20
12.0027955657
 30
0.0
 10
18.211306185
 20
12.0023682239
 30
0.0
 10
18.2120546088
 20
12.0019568784
 30
0.0
 10
18.2128356814
 20
12.0017991555
 30
0.0
 10
18.2142177276
 20
12.0016409773
 30
0.0
 10
18.2161841477
 20
12.001353392
 30
0.0
 10
18.2185472515
 20
12.0010347068
 30
0.0
 10
18.2209094469
 20
12.0007089395
 30
0.0
 10
18.2240593527
 20
12.0002771311
 30
0.0
 10
18.227209204
 20
11.9998441994
 30
0.0
 10
18.2303589848
 20
11.9994127266
 30
0.0
 10
18.2327215866
 20
11.9990858685
 30
0.0
 10
18.2346895632
 20
11.9988237237
 30
0.0
 10
18.2360688327
 20
11.9986201483
 30
0.0
 10
18.236854354
 20
11.998535161
 30
0.0
 10
18.2374509115
 20
11.9983831313
 30
0.0
 10
18.2380191193
 20
11.998568588
 30
0.0
 10
18.2387866183
 20
11.9986981444
 30
0.0
 10
18.2401251343
 20
11.9989797161
 30
0.0
 10
18.2420397087
 20
11.9993532839
 30
0.0
 10
18.244336167
 20
11.99981385
 30
0.0
 10
18.2473984712
 20
12.0004235981
 30
0.0
 10
18.2504606791
 20
12.0010348176
 30
0.0
 10
18.2535229061
 20
12.0016448778
 30
0.0
 10
18.2558196153
 20
12.0021044293
 30
0.0
 10
18.2581161592
 20
12.0025565351
 30
0.0
 10
18.2600304641
 20
12.0029564372
 30
0.0
 10
18.2613694615
 20
12.0031910167
 30
0.0
 10
18.262136189
 20
12.0033958642
 30
0.0
 10
18.2629088906
 20
12.0038673917
 30
0.0
 10
18.263872722
 20
12.0043654901
 30
0.0
 10
18.2654159953
 20
12.0052134774
 30
0.0
 10
18.2673446963
 20
12.0062559816
 30
0.0
 10
18.2704308318
 20
12.0079338002
 30
0.0
 10
18.27428846
 20
12.0100274032
 30
0.0
 10
18.2781459852
 20
12.0121234228
 30
0.0
 10
18.2812322856
 20
12.0137973748
 30
0.0
 10
18.2831605741
 20
12.0148495458
 30
0.0
 10
18.2847046931
 20
12.015677716
 30
0.0
 10
18.2856663716
 20
12.0162262634
 30
0.0
 10
18.2864434925
 20
12.0165942346
 30
0.0
 10
18.2871922177
 20
12.0172209195
 30
0.0
 10
18.2884892959
 20
12.0184378017
 30
0.0
 10
18.2903491472
 20
12.0201134989
 30
0.0
 10
18.2933210629
 20
12.0228296581
 30
0.0
 10
18.2970372751
 20
12.026212853
 30
0.0
 10
18.3029824749
 20
12.0316327039
 30
0.0
 10
18.3074415411
 20
12.0356960758
 30
0.0
 10
18.310414215
 20
12.0384053274
 30
0.0
  0
SPLINE
  5
34B
100
AcDbEntity
  8
02__ASM_ALL_AXES
100
AcDbSpline
 62
7
  6
BYLAYER
 70
0
 71
3
 72
66
 73
62
 74
0
 42
0.0000001
 43
0.0000001
 44
0.0000000001
 40
0.0
 40
0.0
 40
0.0
 40
0.0
 40
0.0625
 40
0.09375
 40
0.125
 40
0.140625
 40
0.15625
 40
0.1640625
 40
0.16796875
 40
0.171875
 40
0.1796875
 40
0.1875
 40
0.203125
 40
0.21875
 40
0.25
 40
0.28125
 40
0.296875
 40
0.3125
 40
0.3203125
 40
0.328125
 40
0.33203125
 40
0.3359375
 40
0.34375
 40
0.359375
 40
0.375
 40
0.40625
 40
0.4375
 40
0.453125
 40
0.46875
 40
0.484375
 40
0.4921875
 40
0.49609375
 40
0.5
 40
0.50390625
 40
0.5078125
 40
0.515625
 40
0.53125
 40
0.546875
 40
0.5625
 40
0.59375
 40
0.625
 40
0.640625
 40
0.65625
 40
0.6640625
 40
0.671875
 40
0.6796875
 40
0.6875
 40
0.71875
 40
0.75
 40
0.78125
 40
0.8125
 40
0.8203125
 40
0.828125
 40
0.83203125
 40
0.8359375
 40
0.84375
 40
0.859375
 40
0.875
 40
0.90625
 40
0.9375
 40
1.0
 40
1.0
 40
1.0
 40
1.0
 10
18.3104142163
 20
12.0384053288
 30
0.0
 10
18.3131499191
 20
12.0419910211
 30
0.0
 10
18.3172533742
 20
12.0473699874
 30
0.0
 10
18.3227250441
 20
12.0545402308
 30
0.0
 10
18.3261440119
 20
12.059025199
 30
0.0
 10
18.3288810692
 20
12.0626050428
 30
0.0
 10
18.3305874354
 20
12.064860989
 30
0.0
 10
18.3317904984
 20
12.0664029879
 30
0.0
 10
18.332464497
 20
12.0673422758
 30
0.0
 10
18.3330877673
 20
12.0685006071
 30
0.0
 10
18.3338842245
 20
12.0698735211
 30
0.0
 10
18.335148849
 20
12.0721120978
 30
0.0
 10
18.3367329551
 20
12.0748959615
 30
0.0
 10
18.3392656562
 20
12.0793582006
 30
0.0
 10
18.3424322453
 20
12.0849329992
 30
0.0
 10
18.3455983191
 20
12.0905097274
 30
0.0
 10
18.3481318446
 20
12.0949688792
 30
0.0
 10
18.3497138896
 20
12.0977604611
 30
0.0
 10
18.3509827393
 20
12.0999832155
 30
0.0
 10
18.3517684402
 20
12.1013964089
 30
0.0
 10
18.3524137899
 20
12.1024720589
 30
0.0
 10
18.3529978477
 20
12.1037481501
 30
0.0
 10
18.353991476
 20
12.106074423
 30
0.0
 10
18.3554258003
 20
12.10934909
 30
0.0
 10
18.3577124198
 20
12.1146156957
 30
0.0
 10
18.3605735184
 20
12.1211897335
 30
0.0
 10
18.3634336944
 20
12.1277667256
 30
0.0
 10
18.36572179
 20
12.1330286044
 30
0.0
 10
18.3674385508
 20
12.1369723854
 30
0.0
 10
18.3688669067
 20
12.1402675113
 30
0.0
 10
18.3698712384
 20
12.1425571016
 30
0.0
 10
18.3704381411
 20
12.1438919856
 30
0.0
 10
18.370883041
 20
12.1448183649
 30
0.0
 10
18.3712525501
 20
12.1460306055
 30
0.0
 10
18.371771526
 20
12.1475472147
 30
0.0
 10
18.3726674824
 20
12.1502477373
 30
0.0
 10
18.3739538183
 20
12.1540813473
 30
0.0
 10
18.3754947134
 20
12.1586920344
 30
0.0
 10
18.3775500332
 20
12.1648361864
 30
0.0
 10
18.3801200056
 20
12.1725162189
 30
0.0
 10
18.3826856959
 20
12.1802011699
 30
0.0
 10
18.3847478672
 20
12.1863374523
 30
0.0
 10
18.3860148177
 20
12.1901993655
 30
0.0
 10
18.387078549
 20
12.1932276475
 30
0.0
 10
18.3877389789
 20
12.1956665628
 30
0.0
 10
18.3883609163
 20
12.1981524702
 30
0.0
 10
18.3896245867
 20
12.2031001231
 30
0.0
 10
18.3915118525
 20
12.2105315891
 30
0.0
 10
18.3940325615
 20
12.2204352719
 30
0.0
 10
18.3965534301
 20
12.2303374041
 30
0.0
 10
18.3984403369
 20
12.2377723592
 30
0.0
 10
18.399704466
 20
12.2427155539
 30
0.0
 10
18.4002219078
 20
12.2447953006
 30
0.0
 10
18.400657511
 20
12.2464122447
 30
0.0
 10
18.4010139382
 20
12.2482005359
 30
0.0
 10
18.4016008987
 20
12.2514096574
 30
0.0
 10
18.4024586073
 20
12.2559525792
 30
0.0
 10
18.4038202146
 20
12.2632444675
 30
0.0
 10
18.405525898
 20
12.2723513762
 30
0.0
 10
18.4082529287
 20
12.2869268943
 30
0.0
 10
18.4102986659
 20
12.2978575284
 30
0.0
 10
18.4116623876
 20
12.305144841
 30
0.0
  0
SPLINE
  5
34C
100
AcDbEntity
  8
02__ASM_ALL_AXES
100
AcDbSpline
 62
7
  6
BYLAYER
 70
0
 71
3
 72
16
 73
12
 74
0
 42
0.0000001
 43
0.0000001
 44
0.0000000001
 40
0.0
 40
0.0
 40
0.0
 40
0.0
 40
0.125
 40
0.25
 40
0.5
 40
0.625
 40
0.6875
 40
0.75
 40
0.8125
 40
0.875
 40
1.0
 40
1.0
 40
1.0
 40
1.0
 10
18.4119263697
 20
12.3068425403
 30
0.0
 10
18.4124563397
 20
12.3104328256
 30
0.0
 10
18.4135388417
 20
12.317592529
 30
0.0
 10
18.415523348
 20
12.332078873
 30
0.0
 10
18.4173952053
 20
12.3466722241
 30
0.0
 10
18.4187464045
 20
12.3596587069
 30
0.0
 10
18.4195264848
 20
12.3670696613
 30
0.0
 10
18.4200331034
 20
12.3726858245
 30
0.0
 10
18.4205766062
 20
12.3782558535
 30
0.0
 10
18.4212091493
 20
12.3858513448
 30
0.0
 10
18.4216666723
 20
12.3915824708
 30
0.0
 10
18.4219754397
 20
12.3953955531
 30
0.0
  0
SPLINE
  5
34D
100
AcDbEntity
  8
02__ASM_ALL_AXES
100
AcDbSpline
 62
7
  6
BYLAYER
 70
0
 71
3
 72
50
 73
46
 74
0
 42
0.0000001
 43
0.0000001
 44
0.0000000001
 40
0.0
 40
0.0
 40
0.0
 40
0.0
 40
0.0625
 40
0.125
 40
0.140625
 40
0.15625
 40
0.1640625
 40
0.171875
 40
0.1875
 40
0.21875
 40
0.25
 40
0.28125
 40
0.3125
 40
0.328125
 40
0.3359375
 40
0.34375
 40
0.359375
 40
0.375
 40
0.4375
 40
0.46875
 40
0.484375
 40
0.4921875
 40
0.5
 40
0.5078125
 40
0.515625
 40
0.53125
 40
0.5625
 40
0.625
 40
0.640625
 40
0.65625
 40
0.6640625
 40
0.671875
 40
0.6875
 40
0.71875
 40
0.75
 40
0.78125
 40
0.8125
 40
0.828125
 40
0.8359375
 40
0.84375
 40
0.859375
 40
0.875
 40
0.90625
 40
0.9375
 40
1.0
 40
1.0
 40
1.0
 40
1.0
 10
18.4219754395
 20
12.3953955496
 30
0.0
 10
18.4223517532
 20
12.4030088628
 30
0.0
 10
18.4231066501
 20
12.4182351191
 30
0.0
 10
18.4239456963
 20
12.435366323
 30
0.0
 10
18.4245199542
 20
12.4467846966
 30
0.0
 10
18.4247372424
 20
12.4515459379
 30
0.0
 10
18.4249623498
 20
12.4553465683
 30
0.0
 10
18.4249999385
 20
12.4591777808
 30
0.0
 10
18.424978539
 20
12.4658966075
 30
0.0
 10
18.4249938524
 20
12.4754875513
 30
0.0
 10
18.4249912528
 20
12.4869996398
 30
0.0
 10
18.4249991413
 20
12.4985117125
 30
0.0
 10
18.4249882347
 20
12.5081026962
 30
0.0
 10
18.4250127202
 20
12.514821453
 30
0.0
 10
18.4249768929
 20
12.5186527772
 30
0.0
 10
18.424753527
 20
12.5224540848
 30
0.0
 10
18.4245384636
 20
12.5272159976
 30
0.0
 10
18.4239691446
 20
12.5386359666
 30
0.0
 10
18.4233265408
 20
12.5519639196
 30
0.0
 10
18.4226656527
 20
12.5652854491
 30
0.0
 10
18.4223496741
 20
12.5719530556
 30
0.0
 10
18.4221469291
 20
12.5757523053
 30
0.0
 10
18.4220572949
 20
12.5786322212
 30
0.0
 10
18.4217290553
 20
12.5813956285
 30
0.0
 10
18.4213746347
 20
12.5851208167
 30
0.0
 10
18.420715579
 20
12.5916209022
 30
0.0
 10
18.4194263351
 20
12.6046356121
 30
0.0
 10
18.4181191648
 20
12.6176390641
 30
0.0
 10
18.4170165271
 20
12.6287986192
 30
0.0
 10
18.4165359744
 20
12.6334308963
 30
0.0
 10
18.4162004415
 20
12.637177434
 30
0.0
 10
18.4156861681
 20
12.6407751379
 30
0.0
 10
18.4147030984
 20
12.6470019161
 30
0.0
 10
18.4133424315
 20
12.6559338259
 30
0.0
 10
18.4116897055
 20
12.6666350379
 30
0.0
 10
18.4100467329
 20
12.6773461492
 30
0.0
 10
18.4086616826
 20
12.6862533108
 30
0.0
 10
18.4077212838
 20
12.6925233984
 30
0.0
 10
18.4071387369
 20
12.6960518072
 30
0.0
 10
18.4063861145
 20
12.6993750142
 30
0.0
 10
18.4055035701
 20
12.7035992839
 30
0.0
 10
18.4040589547
 20
12.7103188494
 30
0.0
 10
18.4022643335
 20
12.7187317568
 30
0.0
 10
18.3993866811
 20
12.7321848574
 30
0.0
 10
18.3972298499
 20
12.7422763819
 30
0.0
 10
18.3957916495
 20
12.7490036874
 30
0.0
  0
LINE
  5
34E
100
AcDbEntity
  8
02__ASM_ALL_AXES
100
AcDbLine
 62
7
  6
BYLAYER
 10
18.3957916505
 20
12.7490036836
 11
18.3937451469
 21
12.7571169715
  0
LINE
  5
34F
100
AcDbEntity
  8
02__ASM_ALL_AXES
100
AcDbLine
 62
7
  6
BYLAYER
 10
18.3937451468
 20
12.7571169718
 11
18.3913493935
 21
12.7661894871
  0
SPLINE
  5
350
100
AcDbEntity
  8
02__ASM_ALL_AXES
100
AcDbSpline
 62
7
  6
BYLAYER
 70
0
 71
3
 72
28
 73
24
 74
0
 42
0.0000001
 43
0.0000001
 44
0.0000000001
 40
0.0
 40
0.0
 40
0.0
 40
0.0
 40
0.0625
 40
0.125
 40
0.15625
 40
0.1875
 40
0.25
 40
0.3125
 40
0.34375
 40
0.375
 40
0.4375
 40
0.46875
 40
0.5
 40
0.53125
 40
0.5625
 40
0.625
 40
0.65625
 40
0.6875
 40
0.75
 40
0.8125
 40
0.84375
 40
0.875
 40
1.0
 40
1.0
 40
1.0
 40
1.0
 10
18.3913493936
 20
12.7661894867
 30
0.0
 10
18.3907134162
 20
12.7684304207
 30
0.0
 10
18.3894463163
 20
12.7729076956
 30
0.0
 10
18.3878381668
 20
12.778527254
 30
0.0
 10
18.3866026241
 20
12.7829746748
 30
0.0
 10
18.3851825933
 20
12.7875966274
 30
0.0
 10
18.383341178
 20
12.7934276465
 30
0.0
 10
18.3815337743
 20
12.7992602824
 30
0.0
 10
18.3800593248
 20
12.803879648
 30
0.0
 10
18.3784981273
 20
12.808308087
 30
0.0
 10
18.3769650096
 20
12.812799011
 30
0.0
 10
18.3754127135
 20
12.817245675
 30
0.0
 10
18.374277947
 20
12.820650968
 30
0.0
 10
18.3730349474
 20
12.823797211
 30
0.0
 10
18.3714167634
 20
12.8280862594
 30
0.0
 10
18.3697801521
 20
12.8323290609
 30
0.0
 10
18.3681694613
 20
12.8366400596
 30
0.0
 10
18.3664796582
 20
12.8407399323
 30
0.0
 10
18.3643339526
 20
12.8457942662
 30
0.0
 10
18.3622228131
 20
12.8508716335
 30
0.0
 10
18.3604777042
 20
12.8549346529
 30
0.0
 10
18.3575745946
 20
12.8610652676
 30
0.0
 10
18.3552296715
 20
12.8661647159
 30
0.0
 10
18.3533299458
 20
12.8702472818
 30
0.0
  0
SPLINE
  5
351
100
AcDbEntity
  8
02__ASM_ALL_AXES
100
AcDbSpline
 62
7
  6
BYLAYER
 70
0
 71
3
 72
49
 73
45
 74
0
 42
0.0000001
 43
0.0000001
 44
0.0000000001
 40
0.0
 40
0.0
 40
0.0
 40
0.0
 40
0.0625
 40
0.125
 40
0.140625
 40
0.15625
 40
0.1640625
 40
0.171875
 40
0.1875
 40
0.21875
 40
0.25
 40
0.28125
 40
0.3125
 40
0.328125
 40
0.3359375
 40
0.34375
 40
0.359375
 40
0.375
 40
0.4375
 40
0.46875
 40
0.484375
 40
0.4921875
 40
0.5
 40
0.5078125
 40
0.515625
 40
0.53125
 40
0.5625
 40
0.625
 40
0.640625
 40
0.65625
 40
0.6640625
 40
0.671875
 40
0.6875
 40
0.71875
 40
0.75
 40
0.78125
 40
0.8125
 40
0.828125
 40
0.8359375
 40
0.84375
 40
0.859375
 40
0.875
 40
0.9375
 40
1.0
 40
1.0
 40
1.0
 40
1.0
 10
17.256635924
 20
13.6490839178
 30
0.0
 10
17.2557793298
 20
13.6458119399
 30
0.0
 10
17.2540643344
 20
13.639268708
 30
0.0
 10
17.2521430955
 20
13.6319043146
 30
0.0
 10
17.2508504121
 20
13.6269994696
 30
0.0
 10
17.2503292979
 20
13.6249487714
 30
0.0
 10
17.249871583
 20
13.6233245683
 30
0.0
 10
17.2495631592
 20
13.6216405536
 30
0.0
 10
17.2490928303
 20
13.6186657535
 30
0.0
 10
17.248384359
 20
13.6144304152
 30
0.0
 10
17.2475510854
 20
13.6093424877
 30
0.0
 10
17.2467087606
 20
13.6042536446
 30
0.0
 10
17.2460229172
 20
13.6000205954
 30
0.0
 10
17.2455129895
 20
13.5970417894
 30
0.0
 10
17.2452679237
 20
13.5953641841
 30
0.0
 10
17.2451972413
 20
13.593779132
 30
0.0
 10
17.245049245
 20
13.5917661853
 30
0.0
 10
17.2447434805
 20
13.5869611173
 30
0.0
 10
17.2443667809
 20
13.5813470516
 30
0.0
 10
17.244006756
 20
13.5757346912
 30
0.0
 10
17.2438137161
 20
13.5729308449
 30
0.0
 10
17.2437233582
 20
13.5713244024
 30
0.0
 10
17.2435994601
 20
13.5701316374
 30
0.0
 10
17.2436901056
 20
13.5688927274
 30
0.0
 10
17.2437361275
 20
13.5672569353
 30
0.0
 10
17.2438515706
 20
13.5643868831
 30
0.0
 10
17.2440565019
 20
13.5586513096
 30
0.0
 10
17.244277544
 20
13.5529182147
 30
0.0
 10
17.2444510248
 20
13.5479955857
 30
0.0
 10
17.2445422764
 20
13.545957556
 30
0.0
 10
17.2445713529
 20
13.5442966294
 30
0.0
 10
17.2447609541
 20
13.5427472616
 30
0.0
 10
17.245167385
 20
13.5400877059
 30
0.0
 10
17.2457086912
 20
13.5362612606
 30
0.0
 10
17.2463763633
 20
13.5316810239
 30
0.0
 10
17.2470345121
 20
13.5270981242
 30
0.0
 10
17.2475996264
 20
13.5232783367
 30
0.0
 10
17.2479643934
 20
13.5206071297
 30
0.0
 10
17.2482206568
 20
13.5190764041
 30
0.0
 10
17.2486569505
 20
13.5175293517
 30
0.0
 10
17.2491407812
 20
13.515601117
 30
0.0
 10
17.250352634
 20
13.5109687593
 30
0.0
 10
17.2521489648
 20
13.504022168
 30
0.0
 10
17.2537544188
 20
13.4978466297
 30
0.0
 10
17.2545560563
 20
13.4947589594
 30
0.0
  0
SPLINE
  5
352
100
AcDbEntity
  8
02__ASM_ALL_AXES
100
AcDbSpline
 62
7
  6
BYLAYER
 70
0
 71
3
 72
24
 73
20
 74
0
 42
0.0000001
 43
0.0000001
 44
0.0000000001
 40
0.0
 40
0.0
 40
0.0
 40
0.0
 40
0.125
 40
0.25
 40
0.28125
 40
0.3125
 40
0.34375
 40
0.375
 40
0.4375
 40
0.46875
 40
0.5
 40
0.53125
 40
0.5625
 40
0.625
 40
0.65625
 40
0.6875
 40
0.75
 40
0.875
 40
1.0
 40
1.0
 40
1.0
 40
1.0
 10
17.2545560569
 20
13.4947589577
 30
0.0
 10
17.2547199997
 20
13.4942579513
 30
0.0
 10
17.255045896
 20
13.4932538351
 30
0.0
 10
17.2554214819
 20
13.49213367
 30
0.0
 10
17.2556764172
 20
13.4913802323
 30
0.0
 10
17.2557988514
 20
13.4910165373
 30
0.0
 10
17.2559405105
 20
13.4906020791
 30
0.0
 10
17.2562197689
 20
13.4898109884
 30
0.0
 10
17.256476903
 20
13.4890767455
 30
0.0
 10
17.2567326253
 20
13.4883508192
 30
0.0
 10
17.2569507768
 20
13.4877245769
 30
0.0
 10
17.2570641951
 20
13.4874213663
 30
0.0
 10
17.2572504312
 20
13.4869080793
 30
0.0
 10
17.257436063
 20
13.4864027662
 30
0.0
 10
17.2575972491
 20
13.4859552862
 30
0.0
 10
17.257857024
 20
13.485265842
 30
0.0
 10
17.2583577673
 20
13.4839432525
 30
0.0
 10
17.2590497594
 20
13.482130683
 30
0.0
 10
17.2596140509
 20
13.4807180414
 30
0.0
 10
17.2598948595
 20
13.4800070439
 30
0.0
  0
LINE
  5
353
100
AcDbEntity
  8
02__ASM_ALL_AXES
100
AcDbLine
 62
7
  6
BYLAYER
 10
17.2598948593
 20
13.4800070443
 11
17.2607133858
 21
13.4780051363
  0
SPLINE
  5
354
100
AcDbEntity
  8
02__ASM_ALL_AXES
100
AcDbSpline
 62
7
  6
BYLAYER
 70
0
 71
3
 72
65
 73
61
 74
0
 42
0.0000001
 43
0.0000001
 44
0.0000000001
 40
0.0
 40
0.0
 40
0.0
 40
0.0
 40
0.0625
 40
0.09375
 40
0.125
 40
0.140625
 40
0.15625
 40
0.1640625
 40
0.16796875
 40
0.171875
 40
0.1796875
 40
0.1875
 40
0.21875
 40
0.25
 40
0.28125
 40
0.3125
 40
0.3203125
 40
0.328125
 40
0.33203125
 40
0.3359375
 40
0.34375
 40
0.359375
 40
0.375
 40
0.40625
 40
0.4375
 40
0.453125
 40
0.46875
 40
0.484375
 40
0.4921875
 40
0.49609375
 40
0.5
 40
0.50390625
 40
0.5078125
 40
0.515625
 40
0.53125
 40
0.546875
 40
0.5625
 40
0.59375
 40
0.625
 40
0.640625
 40
0.65625
 40
0.6640625
 40
0.66796875
 40
0.671875
 40
0.6796875
 40
0.6875
 40
0.71875
 40
0.75
 40
0.78125
 40
0.8125
 40
0.8203125
 40
0.828125
 40
0.83203125
 40
0.8359375
 40
0.84375
 40
0.859375
 40
0.875
 40
0.90625
 40
0.9375
 40
1.0
 40
1.0
 40
1.0
 40
1.0
 10
17.2607133858
 20
13.4780051363
 30
0.0
 10
17.2627532344
 20
13.4740416686
 30
0.0
 10
17.265813363
 20
13.4680965925
 30
0.0
 10
17.2698921117
 20
13.4601693225
 30
0.0
 10
17.2724442937
 20
13.4552158243
 30
0.0
 10
17.2744792813
 20
13.451250642
 30
0.0
 10
17.2757665615
 20
13.4487778394
 30
0.0
 10
17.2766367688
 20
13.4470359828
 30
0.0
 10
17.2771823584
 20
13.4460576821
 30
0.0
 10
17.2779099761
 20
13.4451435848
 30
0.0
 10
17.2787572791
 20
13.4439790174
 30
0.0
 10
17.2808420259
 20
13.4412021251
 30
0.0
 10
17.2839474819
 20
13.4370290945
 30
0.0
 10
17.2881011927
 20
13.4314699398
 30
0.0
 10
17.292248709
 20
13.4259076509
 30
0.0
 10
17.2953681026
 20
13.421741672
 30
0.0
 10
17.2974350402
 20
13.4189557693
 30
0.0
 10
17.2983149287
 20
13.4178076883
 30
0.0
 10
17.2989753105
 20
13.4168595735
 30
0.0
 10
17.2997948767
 20
13.4160198893
 30
0.0
 10
17.3013030782
 20
13.4146008211
 30
0.0
 10
17.3034190634
 20
13.4125472968
 30
0.0
 10
17.3068262009
 20
13.4092763397
 30
0.0
 10
17.3110777675
 20
13.4051826655
 30
0.0
 10
17.3153318036
 20
13.4010905501
 30
0.0
 10
17.3187349898
 20
13.3978170989
 30
0.0
 10
17.321286026
 20
13.3953603521
 30
0.0
 10
17.3234164187
 20
13.3933184904
 30
0.0
 10
17.3248987744
 20
13.3918785154
 30
0.0
 10
17.3257597661
 20
13.3910723389
 30
0.0
 10
17.3263662643
 20
13.3904207567
 30
0.0
 10
17.3271227791
 20
13.3899486407
 30
0.0
 10
17.328079138
 20
13.3892565529
 30
0.0
 10
17.329777146
 20
13.3880745654
 30
0.0
 10
17.3321901299
 20
13.3863707664
 30
0.0
 10
17.3350911458
 20
13.3843327202
 30
0.0
 10
17.3389573619
 20
13.3816131147
 30
0.0
 10
17.3437900817
 20
13.3782139064
 30
0.0
 10
17.3486252592
 20
13.3748162667
 30
0.0
 10
17.3524875429
 20
13.3720941514
 30
0.0
 10
17.3549148873
 20
13.3704020538
 30
0.0
 10
17.3565871339
 20
13.3691990899
 30
0.0
 10
17.3575847831
 20
13.3685406213
 30
0.0
 10
17.3587409253
 20
13.3679911533
 30
0.0
 10
17.3601319286
 20
13.3672670604
 30
0.0
 10
17.3635149323
 20
13.3655599115
 30
0.0
 10
17.3685705963
 20
13.3629861728
 30
0.0
 10
17.3753227784
 20
13.3595625881
 30
0.0
 10
17.3820699684
 20
13.3561345016
 30
0.0
 10
17.3871368647
 20
13.353570892
 30
0.0
 10
17.390505516
 20
13.3518508003
 30
0.0
 10
17.3919227801
 20
13.351150389
 30
0.0
 10
17.3930247368
 20
13.3505520571
 30
0.0
 10
17.3942431842
 20
13.350092702
 30
0.0
 10
17.3964295914
 20
13.3493534025
 30
0.0
 10
17.3995247909
 20
13.3482635698
 30
0.0
 10
17.4044928919
 20
13.3465386658
 30
0.0
 10
17.4106976121
 20
13.3443760862
 30
0.0
 10
17.4206281994
 20
13.3409195797
 30
0.0
 10
17.428075457
 20
13.3383263851
 30
0.0
 10
17.4330404471
 20
13.3365977698
 30
0.0
  0
SPLINE
  5
355
100
AcDbEntity
  8
02__ASM_ALL_AXES
100
AcDbSpline
 62
7
  6
BYLAYER
 70
0
 71
3
 72
65
 73
61
 74
0
 42
0.0000001
 43
0.0000001
 44
0.0000000001
 40
0.0
 40
0.0
 40
0.0
 40
0.0
 40
0.0625
 40
0.09375
 40
0.125
 40
0.140625
 40
0.15625
 40
0.1640625
 40
0.16796875
 40
0.171875
 40
0.1796875
 40
0.1875
 40
0.21875
 40
0.25
 40
0.28125
 40
0.3125
 40
0.3203125
 40
0.328125
 40
0.33203125
 40
0.3359375
 40
0.34375
 40
0.359375
 40
0.375
 40
0.40625
 40
0.4375
 40
0.453125
 40
0.46875
 40
0.484375
 40
0.4921875
 40
0.49609375
 40
0.5
 40
0.50390625
 40
0.5078125
 40
0.515625
 40
0.53125
 40
0.546875
 40
0.5625
 40
0.59375
 40
0.625
 40
0.640625
 40
0.65625
 40
0.6640625
 40
0.66796875
 40
0.671875
 40
0.6796875
 40
0.6875
 40
0.71875
 40
0.75
 40
0.78125
 40
0.8125
 40
0.8203125
 40
0.828125
 40
0.83203125
 40
0.8359375
 40
0.84375
 40
0.859375
 40
0.875
 40
0.90625
 40
0.9375
 40
1.0
 40
1.0
 40
1.0
 40
1.0
 10
17.4330404458
 20
13.3365977701
 30
0.0
 10
17.438545033
 20
13.3354294178
 30
0.0
 10
17.4468021522
 20
13.3336771969
 30
0.0
 10
17.4578106906
 20
13.3313396722
 30
0.0
 10
17.4646930145
 20
13.3298812822
 30
0.0
 10
17.4701943424
 20
13.3287087266
 30
0.0
 10
17.4736430066
 20
13.3279892069
 30
0.0
 10
17.4760363607
 20
13.3274588335
 30
0.0
 10
17.4774363957
 20
13.3271975526
 30
0.0
 10
17.4789584808
 20
13.3270936723
 30
0.0
 10
17.4808193695
 20
13.3269100203
 30
0.0
 10
17.4853198418
 20
13.3265135479
 30
0.0
 10
17.4920560698
 20
13.3259000745
 30
0.0
 10
17.501046257
 20
13.3250936038
 30
0.0
 10
17.5100331365
 20
13.3242811893
 30
0.0
 10
17.5167768069
 20
13.3236810895
 30
0.0
 10
17.5212677695
 20
13.3232675287
 30
0.0
 10
17.5231460582
 20
13.3231151436
 30
0.0
 10
17.5246322407
 20
13.3229467483
 30
0.0
 10
17.5261785733
 20
13.3229483563
 30
0.0
 10
17.5289126022
 20
13.3230301574
 30
0.0
 10
17.5328037767
 20
13.3231058058
 30
0.0
 10
17.5390378037
 20
13.3232498662
 30
0.0
 10
17.5468275529
 20
13.3234221112
 30
0.0
 10
17.5546182553
 20
13.3235968998
 30
0.0
 10
17.5608507572
 20
13.3237368904
 30
0.0
 10
17.5655247417
 20
13.3238398779
 30
0.0
 10
17.5694210604
 20
13.3239323192
 30
0.0
 10
17.5721458585
 20
13.3239840068
 30
0.0
 10
17.5737069865
 20
13.3240338794
 30
0.0
 10
17.5748662809
 20
13.3240139938
 30
0.0
 10
17.5760697314
 20
13.3242130998
 30
0.0
 10
17.5776589299
 20
13.3244021877
 30
0.0
 10
17.5804472035
 20
13.3247686811
 30
0.0
 10
17.5844266998
 20
13.3252736409
 30
0.0
 10
17.5892037004
 20
13.3258875354
 30
0.0
 10
17.5955724783
 20
13.3267033849
 30
0.0
 10
17.6035336097
 20
13.3277234142
 30
0.0
 10
17.6114948
 20
13.3287459192
 30
0.0
 10
17.6178634836
 20
13.3295578074
 30
0.0
 10
17.6218445531
 20
13.3300792893
 30
0.0
 10
17.6246300118
 20
13.3304161558
 30
0.0
 10
17.6262237211
 20
13.3306527282
 30
0.0
 10
17.6278250336
 20
13.3310553181
 30
0.0
 10
17.6298240753
 20
13.3315018087
 30
0.0
 10
17.6346239156
 20
13.3326201027
 30
0.0
 10
17.6418227588
 20
13.3342777562
 30
0.0
 10
17.6514218278
 20
13.3365000611
 30
0.0
 10
17.6610204083
 20
13.3387161786
 30
0.0
 10
17.6682203505
 20
13.3403877536
 30
0.0
 10
17.6730187866
 20
13.341488259
 30
0.0
 10
17.6750203975
 20
13.3419672975
 30
0.0
 10
17.6766164087
 20
13.3423027292
 30
0.0
 10
17.6782317199
 20
13.3428129614
 30
0.0
 10
17.6810674818
 20
13.343787084
 30
0.0
 10
17.6851138915
 20
13.345136313
 30
0.0
 10
17.6915907617
 20
13.3473187609
 30
0.0
 10
17.6996859539
 20
13.3500387087
 30
0.0
 10
17.7126387641
 20
13.3543951794
 30
0.0
 10
17.7223532586
 20
13.3576615077
 30
0.0
 10
17.7288296135
 20
13.3598392876
 30
0.0
  0
LINE
  5
356
100
AcDbEntity
  8
02__ASM_ALL_AXES
100
AcDbLine
 62
7
  6
BYLAYER
 10
17.728829615
 20
13.3598392882
 11
17.7332518832
 21
13.3615891793
  0
SPLINE
  5
357
100
AcDbEntity
  8
02__ASM_ALL_AXES
100
AcDbSpline
 62
7
  6
BYLAYER
 70
0
 71
3
 72
49
 73
45
 74
0
 42
0.0000001
 43
0.0000001
 44
0.0000000001
 40
0.0
 40
0.0
 40
0.0
 40
0.0
 40
0.0625
 40
0.125
 40
0.140625
 40
0.15625
 40
0.1640625
 40
0.171875
 40
0.1875
 40
0.21875
 40
0.25
 40
0.28125
 40
0.3125
 40
0.328125
 40
0.3359375
 40
0.34375
 40
0.359375
 40
0.375
 40
0.4375
 40
0.46875
 40
0.484375
 40
0.4921875
 40
0.5
 40
0.5078125
 40
0.515625
 40
0.53125
 40
0.5625
 40
0.625
 40
0.640625
 40
0.65625
 40
0.6640625
 40
0.671875
 40
0.6875
 40
0.71875
 40
0.75
 40
0.78125
 40
0.8125
 40
0.828125
 40
0.8359375
 40
0.84375
 40
0.859375
 40
0.875
 40
0.9375
 40
1.0
 40
1.0
 40
1.0
 40
1.0
 10
17.7332518833
 20
13.3615891793
 30
0.0
 10
17.7377386844
 20
13.3635663058
 30
0.0
 10
17.7467121967
 20
13.3675181875
 30
0.0
 10
17.7568078019
 20
13.3719747254
 30
0.0
 10
17.7635376165
 20
13.3749301888
 30
0.0
 10
17.7663425752
 20
13.3761846042
 30
0.0
 10
17.7685845148
 20
13.3771345592
 30
0.0
 10
17.7708338685
 20
13.3782804457
 30
0.0
 10
17.7747736616
 20
13.3803768284
 30
0.0
 10
17.7804003032
 20
13.3833237946
 30
0.0
 10
17.7871522906
 20
13.3868817258
 30
0.0
 10
17.7939068227
 20
13.3904299562
 30
0.0
 10
17.7995271027
 20
13.3934011744
 30
0.0
 10
17.8034780287
 20
13.3954551162
 30
0.0
 10
17.8057095696
 20
13.3966689081
 30
0.0
 10
17.8078426925
 20
13.3980336719
 30
0.0
 10
17.8105427624
 20
13.3996879916
 30
0.0
 10
17.816994988
 20
13.4037011398
 30
0.0
 10
17.8245343582
 20
13.4083659617
 30
0.0
 10
17.8320628567
 20
13.4130449032
 30
0.0
 10
17.8358363493
 20
13.4153735052
 30
0.0
 10
17.837978338
 20
13.4167207501
 30
0.0
 10
17.8396250671
 20
13.4176844436
 30
0.0
 10
17.8411179924
 20
13.4188267899
 30
0.0
 10
17.843162212
 20
13.4202875999
 30
0.0
 10
17.8467145588
 20
13.422873077
 30
0.0
 10
17.8538380272
 20
13.4280224867
 30
0.0
 10
17.860948996
 20
13.4331849241
 30
0.0
 10
17.8670574864
 20
13.437597343
 30
0.0
 10
17.8695863525
 20
13.4394505264
 30
0.0
 10
17.8716473196
 20
13.4408991045
 30
0.0
 10
17.8735698603
 20
13.4424718166
 30
0.0
 10
17.8768699576
 20
13.4452817747
 30
0.0
 10
17.8816182234
 20
13.4492655911
 30
0.0
 10
17.8873007884
 20
13.4540602232
 30
0.0
 10
17.8929906234
 20
13.4588473008
 30
0.0
 10
17.8977207143
 20
13.4628500033
 30
0.0
 10
17.9010526177
 20
13.4656269108
 30
0.0
 10
17.9029242686
 20
13.4672525039
 30
0.0
 10
17.9046743682
 20
13.4690241145
 30
0.0
 10
17.9069035404
 20
13.4711887173
 30
0.0
 10
17.91221935
 20
13.476424852
 30
0.0
 10
17.9202075457
 20
13.484261658
 30
0.0
 10
17.9273022797
 20
13.4912347767
 30
0.0
 10
17.9308503822
 20
13.4947204524
 30
0.0
  0
SPLINE
  5
358
100
AcDbEntity
  8
02__ASM_ALL_AXES
100
AcDbSpline
 62
7
  6
BYLAYER
 70
0
 71
3
 72
46
 73
42
 74
0
 42
0.0000001
 43
0.0000001
 44
0.0000000001
 40
0.0
 40
0.0
 40
0.0
 40
0.0
 40
0.0625
 40
0.125
 40
0.140625
 40
0.15625
 40
0.171875
 40
0.1875
 40
0.21875
 40
0.25
 40
0.28125
 40
0.3125
 40
0.328125
 40
0.3359375
 40
0.34375
 40
0.359375
 40
0.375
 40
0.4375
 40
0.46875
 40
0.484375
 40
0.5
 40
0.515625
 40
0.53125
 40
0.5625
 40
0.625
 40
0.640625
 40
0.65625
 40
0.6640625
 40
0.671875
 40
0.6875
 40
0.71875
 40
0.75
 40
0.78125
 40
0.8125
 40
0.828125
 40
0.8359375
 40
0.84375
 40
0.859375
 40
0.875
 40
0.9375
 40
1.0
 40
1.0
 40
1.0
 40
1.0
 10
17.9308503759
 20
13.4947204457
 30
0.0
 10
17.9334438885
 20
13.497665508
 30
0.0
 10
17.9386302118
 20
13.5035567224
 30
0.0
 10
17.9444679839
 20
13.5101794347
 30
0.0
 10
17.9483552259
 20
13.5146017278
 30
0.0
 10
17.9503070062
 20
13.5168002057
 30
0.0
 10
17.9522270705
 20
13.5190479279
 30
0.0
 10
17.9546361278
 20
13.5222792404
 30
0.0
 10
17.9576995722
 20
13.5262379997
 30
0.0
 10
17.9613520585
 20
13.5310228171
 30
0.0
 10
17.9650157362
 20
13.5357990198
 30
0.0
 10
17.9680512023
 20
13.5397793156
 30
0.0
 10
17.9702080894
 20
13.5425690252
 30
0.0
 10
17.9713909145
 20
13.5441571026
 30
0.0
 10
17.9723867567
 20
13.5457222537
 30
0.0
 10
17.9736954212
 20
13.5476865856
 30
0.0
 10
17.9767840921
 20
13.5523939885
 30
0.0
 10
17.9803996098
 20
13.5578938836
 30
0.0
 10
17.9840245312
 20
13.5633761229
 30
0.0
 10
17.9860715187
 20
13.5665336639
 30
0.0
 10
17.9876772611
 20
13.5688323659
 30
0.0
 10
17.9890131946
 20
13.5713964661
 30
0.0
 10
17.9908884411
 20
13.574722645
 30
0.0
 10
17.9941274349
 20
13.5805870897
 30
0.0
 10
17.9973757994
 20
13.5864328757
 30
0.0
 10
18.0001705228
 20
13.5914523667
 30
0.0
 10
18.0013131771
 20
13.593538011
 30
0.0
 10
18.0022786124
 20
13.5952195895
 30
0.0
 10
18.0030562513
 20
13.5968535637
 30
0.0
 10
18.0043298169
 20
13.5996909248
 30
0.0
 10
18.0061950463
 20
13.6037557053
 30
0.0
 10
18.0084127899
 20
13.6086291863
 30
0.0
 10
18.0106393006
 20
13.6135014375
 30
0.0
 10
18.0124826124
 20
13.6175692923
 30
0.0
 10
18.0137945339
 20
13.6204012733
 30
0.0
 10
18.0145108033
 20
13.6220438558
 30
0.0
 10
18.015101379
 20
13.6237780011
 30
0.0
 10
18.0158825622
 20
13.6259143855
 30
0.0
 10
18.0177220326
 20
13.6310674732
 30
0.0
 10
18.0204962131
 20
13.638786196
 30
0.0
 10
18.0229560663
 20
13.6456517157
 30
0.0
 10
18.0241867535
 20
13.6490839215
 30
0.0
  0
SPLINE
  5
359
100
AcDbEntity
  8
02__ASM_ALL_AXES
100
AcDbSpline
 62
7
  6
BYLAYER
 70
0
 71
3
 72
27
 73
23
 74
0
 42
0.0000001
 43
0.0000001
 44
0.0000000001
 40
0.0
 40
0.0
 40
0.0
 40
0.0
 40
0.125
 40
0.25
 40
0.28125
 40
0.3125
 40
0.34375
 40
0.375
 40
0.4375
 40
0.46875
 40
0.5
 40
0.53125
 40
0.5625
 40
0.625
 40
0.65625
 40
0.6875
 40
0.71875
 40
0.75
 40
0.8125
 40
0.84375
 40
0.875
 40
1.0
 40
1.0
 40
1.0
 40
1.0
 10
18.0241867523
 20
13.6490839178
 30
0.0
 10
18.0246122063
 20
13.650507974
 30
0.0
 10
18.0254784009
 20
13.6533576049
 30
0.0
 10
18.0263840795
 20
13.6565566064
 30
0.0
 10
18.0269781032
 20
13.6586976126
 30
0.0
 10
18.0272735366
 20
13.6597530657
 30
0.0
 10
18.0275772361
 20
13.6608670511
 30
0.0
 10
18.0280207918
 20
13.6626273423
 30
0.0
 10
18.028457888
 20
13.6643219524
 30
0.0
 10
18.0288853954
 20
13.6660073729
 30
0.0
 10
18.0292412521
 20
13.6673646883
 30
0.0
 10
18.0294609984
 20
13.6683535983
 30
0.0
 10
18.0298011773
 20
13.66979651
 30
0.0
 10
18.0301304736
 20
13.6712300421
 30
0.0
 10
18.0304570301
 20
13.6725984393
 30
0.0
 10
18.0307210494
 20
13.6738295216
 30
0.0
 10
18.0309910201
 20
13.6751193961
 30
0.0
 10
18.0313477642
 20
13.6768161996
 30
0.0
 10
18.031711906
 20
13.6785335942
 30
0.0
 10
18.0320562674
 20
13.6802064872
 30
0.0
 10
18.0324725466
 20
13.6824986783
 30
0.0
 10
18.0328455562
 20
13.6844653866
 30
0.0
 10
18.0331356085
 20
13.6860206576
 30
0.0
  0
LINE
  5
35A
100
AcDbEntity
  8
02__ASM_ALL_AXES
100
AcDbLine
 62
7
  6
BYLAYER
 10
18.0331356084
 20
13.6860206567
 11
18.0338017998
 21
13.6899909572
  0
SPLINE
  5
35B
100
AcDbEntity
  8
02__ASM_ALL_AXES
100
AcDbSpline
 62
7
  6
BYLAYER
 70
0
 71
3
 72
25
 73
21
 74
0
 42
0.0000001
 43
0.0000001
 44
0.0000000001
 40
0.0
 40
0.0
 40
0.0
 40
0.0
 40
0.0625
 40
0.125
 40
0.15625
 40
0.1875
 40
0.25
 40
0.3125
 40
0.375
 40
0.4375
 40
0.5
 40
0.5625
 40
0.625
 40
0.6875
 40
0.75
 40
0.8125
 40
0.84375
 40
0.875
 40
0.9375
 40
1.0
 40
1.0
 40
1.0
 40
1.0
 10
18.0338017998
 20
13.6899909572
 30
0.0
 10
18.0339458258
 20
13.6909783615
 30
0.0
 10
18.0342346682
 20
13.6929459768
 30
0.0
 10
18.0345917684
 20
13.6954414633
 30
0.0
 10
18.0348857496
 20
13.6973623209
 30
0.0
 10
18.0351496889
 20
13.6995565312
 30
0.0
 10
18.0354623112
 20
13.7023920159
 30
0.0
 10
18.0358726735
 20
13.7057588849
 30
0.0
 10
18.0361698568
 20
13.7091202498
 30
0.0
 10
18.0364218588
 20
13.71247174
 30
0.0
 10
18.036736424
 20
13.715834431
 30
0.0
 10
18.036845918
 20
13.7191621935
 30
0.0
 10
18.0370178482
 20
13.722501367
 30
0.0
 10
18.0371451048
 20
13.7258298249
 30
0.0
 10
18.0371566173
 20
13.7291454983
 30
0.0
 10
18.0372025826
 20
13.7318863776
 30
0.0
 10
18.0372099353
 20
13.7341387096
 30
0.0
 10
18.0371305219
 20
13.7366123146
 30
0.0
 10
18.0370612237
 20
13.7396278943
 30
0.0
 10
18.0369966519
 20
13.7420636499
 30
0.0
 10
18.0369655076
 20
13.7432786162
 30
0.0
  0
SPLINE
  5
35C
100
AcDbEntity
  8
02__ASM_ALL_AXES
100
AcDbSpline
 62
7
  6
BYLAYER
 70
0
 71
3
 72
53
 73
49
 74
0
 42
0.0000001
 43
0.0000001
 44
0.0000000001
 40
0.0
 40
0.0
 40
0.0
 40
0.0
 40
0.0625
 40
0.09375
 40
0.125
 40
0.140625
 40
0.15625
 40
0.1640625
 40
0.171875
 40
0.1875
 40
0.21875
 40
0.25
 40
0.28125
 40
0.3125
 40
0.328125
 40
0.3359375
 40
0.34375
 40
0.359375
 40
0.375
 40
0.4375
 40
0.46875
 40
0.484375
 40
0.4921875
 40
0.5
 40
0.5078125
 40
0.515625
 40
0.53125
 40
0.5625
 40
0.625
 40
0.640625
 40
0.65625
 40
0.6640625
 40
0.671875
 40
0.6796875
 40
0.6875
 40
0.71875
 40
0.75
 40
0.78125
 40
0.8125
 40
0.8203125
 40
0.828125
 40
0.8359375
 40
0.84375
 40
0.859375
 40
0.875
 40
0.90625
 40
0.9375
 40
1.0
 40
1.0
 40
1.0
 40
1.0
 10
18.0369655077
 20
13.7432786151
 30
0.0
 10
18.0365325272
 20
13.7471658316
 30
0.0
 10
18.0358823612
 20
13.7529964348
 30
0.0
 10
18.035018254
 20
13.7607714588
 30
0.0
 10
18.0344723937
 20
13.7656290022
 30
0.0
 10
18.0340489142
 20
13.769519247
 30
0.0
 10
18.0337541144
 20
13.7719410481
 30
0.0
 10
18.0335872725
 20
13.7739004811
 30
0.0
 10
18.0331685391
 20
13.7757796273
 30
0.0
 10
18.0323186693
 20
13.7790308092
 30
0.0
 10
18.0311661864
 20
13.7836950293
 30
0.0
 10
18.0297550723
 20
13.7892829676
 30
0.0
 10
18.02835791
 20
13.7948759299
 30
0.0
 10
18.0271705474
 20
13.7995275902
 30
0.0
 10
18.0263817172
 20
13.8028007518
 30
0.0
 10
18.0258653205
 20
13.8046447304
 30
0.0
 10
18.0251018446
 20
13.806389321
 30
0.0
 10
18.0242320078
 20
13.8086040568
 30
0.0
 10
18.0220743594
 20
13.8138912101
 30
0.0
 10
18.0195854947
 20
13.8200713922
 30
0.0
 10
18.0170727398
 20
13.8262407505
 30
0.0
 10
18.0158351626
 20
13.8293345633
 30
0.0
 10
18.0150991594
 20
13.8310883448
 30
0.0
 10
18.0146282342
 20
13.8324434061
 30
0.0
 10
18.0138474085
 20
13.8336466226
 30
0.0
 10
18.0129144117
 20
13.8353038772
 30
0.0
 10
18.0112312258
 20
13.8381793878
 30
0.0
 10
18.0079026044
 20
13.8439485558
 30
0.0
 10
18.0045492461
 20
13.8497075836
 30
0.0
 10
18.0017009821
 20
13.8546526601
 30
0.0
 10
18.0004825797
 20
13.8567033256
 30
0.0
 10
17.9995811553
 20
13.8583664606
 30
0.0
 10
17.9987041699
 20
13.8595518741
 30
0.0
 10
17.9977708766
 20
13.8607199294
 30
0.0
 10
17.9959332599
 20
13.8630649736
 30
0.0
 10
17.9931645951
 20
13.8665787214
 30
0.0
 10
17.9894803808
 20
13.8712662163
 30
0.0
 10
17.9857929231
 20
13.8759518662
 30
0.0
 10
17.983031556
 20
13.8794697653
 30
0.0
 10
17.9811846146
 20
13.8818095051
 30
0.0
 10
17.9802717953
 20
13.882989207
 30
0.0
 10
17.9793175762
 20
13.8841306862
 30
0.0
 10
17.9778483014
 20
13.8854707892
 30
0.0
 10
17.9760791546
 20
13.8872081897
 30
0.0
 10
17.9732108266
 20
13.8899532295
 30
0.0
 10
17.9696383282
 20
13.8933964503
 30
0.0
 10
17.9639150822
 20
13.898898911
 30
0.0
 10
17.9596242786
 20
13.9030272624
 30
0.0
 10
17.9567633804
 20
13.905779162
 30
0.0
  0
LINE
  5
35D
100
AcDbEntity
  8
02__ASM_ALL_AXES
100
AcDbLine
 62
7
  6
BYLAYER
 10
17.9567633853
 20
13.9057791579
 11
17.9527803926
 21
13.9090603007
  0
SPLINE
  5
35E
100
AcDbEntity
  8
02__ASM_ALL_AXES
100
AcDbSpline
 62
7
  6
BYLAYER
 70
0
 71
3
 72
29
 73
25
 74
0
 42
0.0000001
 43
0.0000001
 44
0.0000000001
 40
0.0
 40
0.0
 40
0.0
 40
0.0
 40
0.125
 40
0.1875
 40
0.25
 40
0.28125
 40
0.3125
 40
0.328125
 40
0.34375
 40
0.375
 40
0.4375
 40
0.46875
 40
0.5
 40
0.53125
 40
0.5625
 40
0.625
 40
0.65625
 40
0.671875
 40
0.6875
 40
0.71875
 40
0.75
 40
0.8125
 40
0.875
 40
1.0
 40
1.0
 40
1.0
 40
1.0
 10
17.9527803925
 20
13.9090603008
 30
0.0
 10
17.9512623929
 20
13.910246217
 30
0.0
 10
17.9489915696
 20
13.9120309202
 30
0.0
 10
17.9459391008
 20
13.914387209
 30
0.0
 10
17.9439684843
 20
13.9158096863
 30
0.0
 10
17.9424117944
 20
13.9169554523
 30
0.0
 10
17.9414207668
 20
13.9176771972
 30
0.0
 10
17.9406664252
 20
13.9182391082
 30
0.0
 10
17.9397726387
 20
13.9188584459
 30
0.0
 10
17.938144959
 20
13.9199676081
 30
0.0
 10
17.9363043774
 20
13.9212328548
 30
0.0
 10
17.9344775568
 20
13.9224762648
 30
0.0
 10
17.9330465345
 20
13.9234766995
 30
0.0
 10
17.9318522591
 20
13.9242165437
 30
0.0
 10
17.930178747
 20
13.9252935874
 30
0.0
 10
17.9285186104
 20
13.926348304
 30
0.0
 10
17.9270841315
 20
13.9272703435
 30
0.0
 10
17.9262266433
 20
13.9278098225
 30
0.0
 10
17.9252242412
 20
13.9283996247
 30
0.0
 10
17.9240210231
 20
13.9291202107
 30
0.0
 10
17.9220670814
 20
13.9302791684
 30
0.0
 10
17.9196414621
 20
13.931749382
 30
0.0
 10
17.9157104867
 20
13.9339519784
 30
0.0
 10
17.9127542411
 20
13.935572227
 30
0.0
 10
17.9107851916
 20
13.9366594369
 30
0.0
  0
SPLINE
  5
35F
100
AcDbEntity
  8
02__ASM_ALL_AXES
100
AcDbSpline
 62
7
  6
BYLAYER
 70
0
 71
3
 72
66
 73
62
 74
0
 42
0.0000001
 43
0.0000001
 44
0.0000000001
 40
0.0
 40
0.0
 40
0.0
 40
0.0
 40
0.0625
 40
0.09375
 40
0.125
 40
0.140625
 40
0.15625
 40
0.1640625
 40
0.16796875
 40
0.171875
 40
0.1796875
 40
0.1875
 40
0.203125
 40
0.21875
 40
0.25
 40
0.28125
 40
0.3125
 40
0.3203125
 40
0.328125
 40
0.33203125
 40
0.3359375
 40
0.34375
 40
0.359375
 40
0.375
 40
0.40625
 40
0.4375
 40
0.453125
 40
0.46875
 40
0.484375
 40
0.4921875
 40
0.49609375
 40
0.5
 40
0.50390625
 40
0.5078125
 40
0.515625
 40
0.53125
 40
0.546875
 40
0.5625
 40
0.59375
 40
0.625
 40
0.640625
 40
0.65625
 40
0.6640625
 40
0.66796875
 40
0.671875
 40
0.6796875
 40
0.6875
 40
0.71875
 40
0.75
 40
0.78125
 40
0.8125
 40
0.8203125
 40
0.828125
 40
0.83203125
 40
0.8359375
 40
0.84375
 40
0.859375
 40
0.875
 40
0.90625
 40
0.9375
 40
1.0
 40
1.0
 40
1.0
 40
1.0
 10
17.9107851901
 20
13.9366594377
 30
0.0
 10
17.9058278037
 20
13.9388452188
 30
0.0
 10
17.8983914144
 20
13.9421235957
 30
0.0
 10
17.8884774675
 20
13.9464959435
 30
0.0
 10
17.8822786698
 20
13.9492262057
 30
0.0
 10
17.877325516
 20
13.9514160133
 30
0.0
 10
17.8742163745
 20
13.9527718759
 30
0.0
 10
17.8720668709
 20
13.9537465661
 30
0.0
 10
17.8707965028
 20
13.9542634998
 30
0.0
 10
17.8693676116
 20
13.9546296262
 30
0.0
 10
17.8676357754
 20
13.95513892
 30
0.0
 10
17.8648345053
 20
13.9559249358
 30
0.0
 10
17.8613432979
 20
13.956917319
 30
0.0
 10
17.8557515975
 20
13.958499715
 30
0.0
 10
17.8487637151
 20
13.9604788845
 30
0.0
 10
17.840378542
 20
13.9628563763
 30
0.0
 10
17.8340867131
 20
13.9646306205
 30
0.0
 10
17.8298969863
 20
13.9658274633
 30
0.0
 10
17.828144043
 20
13.9663052574
 30
0.0
 10
17.8267585429
 20
13.9667362284
 30
0.0
 10
17.825311404
 20
13.9669889689
 30
0.0
 10
17.8227502724
 20
13.967348455
 30
0.0
 10
17.8191064539
 20
13.9679052112
 30
0.0
 10
17.8132680012
 20
13.9687718836
 30
0.0
 10
17.8059727456
 20
13.9698634375
 30
0.0
 10
17.7986766779
 20
13.9709523096
 30
0.0
 10
17.7928395245
 20
13.9718232729
 30
0.0
 10
17.7884630444
 20
13.9724785077
 30
0.0
 10
17.7848114859
 20
13.973017885
 30
0.0
 10
17.7822642216
 20
13.9734085371
 30
0.0
 10
17.7807948581
 20
13.9736113259
 30
0.0
 10
17.7797316653
 20
13.973821001
 30
0.0
 10
17.7785200453
 20
13.9738105627
 30
0.0
 10
17.776956325
 20
13.9738734229
 30
0.0
 10
17.7741956925
 20
13.9739476566
 30
0.0
 10
17.7702645429
 20
13.9740724019
 30
0.0
 10
17.7655417661
 20
13.9742141137
 30
0.0
 10
17.7592466124
 20
13.9744057489
 30
0.0
 10
17.7513770474
 20
13.9746451042
 30
0.0
 10
17.7435076215
 20
13.9748818564
 30
0.0
 10
17.7372122453
 20
13.9750776564
 30
0.0
 10
17.7332771544
 20
13.9751853374
 30
0.0
 10
17.7305235644
 20
13.9752901719
 30
0.0
 10
17.7289485595
 20
13.9753039864
 30
0.0
 10
17.7273678102
 20
13.9751441991
 30
0.0
 10
17.7253938376
 20
13.9750038041
 30
0.0
 10
17.7206546821
 20
13.9746180054
 30
0.0
 10
17.7135466988
 20
13.9740599966
 30
0.0
 10
17.7040686309
 20
13.9733033438
 30
0.0
 10
17.6945919903
 20
13.9725531186
 30
0.0
 10
17.6874807955
 20
13.9719806477
 30
0.0
 10
17.6827457436
 20
13.9716133284
 30
0.0
 10
17.6807642627
 20
13.9714391216
 30
0.0
 10
17.6791990057
 20
13.9713491004
 30
0.0
 10
17.6775608719
 20
13.9710786278
 30
0.0
 10
17.6746602774
 20
13.9705214591
 30
0.0
 10
17.6705342377
 20
13.9697692482
 30
0.0
 10
17.663922701
 20
13.9685412638
 30
0.0
 10
17.6556616621
 20
13.9670146576
 30
0.0
 10
17.6424421012
 20
13.9645673864
 30
0.0
 10
17.6325278577
 20
13.9627329907
 30
0.0
 10
17.6259182671
 20
13.9615098253
 30
0.0
  0
SPLINE
  5
360
100
AcDbEntity
  8
02__ASM_ALL_AXES
100
AcDbSpline
 62
7
  6
BYLAYER
 70
0
 71
3
 72
34
 73
30
 74
0
 42
0.0000001
 43
0.0000001
 44
0.0000000001
 40
0.0
 40
0.0
 40
0.0
 40
0.0
 40
0.125
 40
0.1875
 40
0.25
 40
0.28125
 40
0.3125
 40
0.328125
 40
0.34375
 40
0.375
 40
0.4375
 40
0.46875
 40
0.484375
 40
0.5
 40
0.515625
 40
0.53125
 40
0.5625
 40
0.625
 40
0.65625
 40
0.671875
 40
0.6875
 40
0.71875
 40
0.75
 40
0.78125
 40
0.8125
 40
0.84375
 40
0.875
 40
0.9375
 40
1.0
 40
1.0
 40
1.0
 40
1.0
 10
17.6259182597
 20
13.9615098235
 30
0.0
 10
17.6228061174
 20
13.9607297121
 30
0.0
 10
17.6181364894
 20
13.9595702428
 30
0.0
 10
17.6119159768
 20
13.9579814923
 30
0.0
 10
17.6080329863
 20
13.9568868928
 30
0.0
 10
17.6049335289
 20
13.9560368888
 30
0.0
 10
17.6029766155
 20
13.9554922624
 30
0.0
 10
17.6014567572
 20
13.9550822398
 30
0.0
 10
17.599770011
 20
13.9545802024
 30
0.0
 10
17.5967395598
 20
13.9536588018
 30
0.0
 10
17.5933155373
 20
13.952624656
 30
0.0
 10
17.5902948684
 20
13.9517130446
 30
0.0
 10
17.5885913526
 20
13.9511942257
 30
0.0
 10
17.5872530161
 20
13.9508007299
 30
0.0
 10
17.5861461881
 20
13.9504237097
 30
0.0
 10
17.5845894898
 20
13.949915166
 30
0.0
 10
17.5819047281
 20
13.9490289759
 30
0.0
 10
17.5788086264
 20
13.9480079446
 30
0.0
 10
17.576133059
 20
13.9471324178
 30
0.0
 10
17.574560599
 20
13.9466055943
 30
0.0
 10
17.5728263164
 20
13.9459792249
 30
0.0
 10
17.5707141767
 20
13.9452304128
 30
0.0
 10
17.5681549177
 20
13.944317239
 30
0.0
 10
17.5656052823
 20
13.943407823
 30
0.0
 10
17.563041844
 20
13.942497975
 30
0.0
 10
17.5605239936
 20
13.9415860971
 30
0.0
 10
17.5573809148
 20
13.9403591916
 30
0.0
 10
17.5533781329
 20
13.9388293827
 30
0.0
 10
17.5501984394
 20
13.9376043705
 30
0.0
 10
17.5486057762
 20
13.93699201
 30
0.0
  0
SPLINE
  5
361
100
AcDbEntity
  8
02__ASM_ALL_AXES
100
AcDbSpline
 62
7
  6
BYLAYER
 70
0
 71
3
 72
61
 73
57
 74
0
 42
0.0000001
 43
0.0000001
 44
0.0000000001
 40
0.0
 40
0.0
 40
0.0
 40
0.0
 40
0.0625
 40
0.09375
 40
0.125
 40
0.140625
 40
0.15625
 40
0.1640625
 40
0.16796875
 40
0.171875
 40
0.1796875
 40
0.1875
 40
0.21875
 40
0.25
 40
0.28125
 40
0.3125
 40
0.3203125
 40
0.328125
 40
0.33203125
 40
0.3359375
 40
0.34375
 40
0.359375
 40
0.375
 40
0.40625
 40
0.4375
 40
0.453125
 40
0.46875
 40
0.484375
 40
0.4921875
 40
0.5
 40
0.5078125
 40
0.515625
 40
0.53125
 40
0.5625
 40
0.625
 40
0.640625
 40
0.65625
 40
0.6640625
 40
0.66796875
 40
0.671875
 40
0.6796875
 40
0.6875
 40
0.71875
 40
0.75
 40
0.78125
 40
0.8125
 40
0.8203125
 40
0.828125
 40
0.83203125
 40
0.8359375
 40
0.84375
 40
0.859375
 40
0.875
 40
0.90625
 40
0.9375
 40
1.0
 40
1.0
 40
1.0
 40
1.0
 10
17.5486057771
 20
13.9369920103
 30
0.0
 10
17.5426482836
 20
13.9342995928
 30
0.0
 10
17.5337121029
 20
13.9302606625
 30
0.0
 10
17.5217969569
 20
13.924876638
 30
0.0
 10
17.5143504875
 20
13.9215090894
 30
0.0
 10
17.5083921792
 20
13.9188208266
 30
0.0
 10
17.50467082
 20
13.9171274888
 30
0.0
 10
17.502060691
 20
13.9159685532
 30
0.0
 10
17.5005772895
 20
13.9152649978
 30
0.0
 10
17.4991243995
 20
13.9144058614
 30
0.0
 10
17.4972978574
 20
13.9133851201
 30
0.0
 10
17.4929227467
 20
13.9108915639
 30
0.0
 10
17.4863563807
 20
13.9071697354
 30
0.0
 10
17.4776037781
 20
13.9021961542
 30
0.0
 10
17.4688488602
 20
13.8972276671
 30
0.0
 10
17.4622877039
 20
13.8934943766
 30
0.0
 10
17.4579059364
 20
13.8910154663
 30
0.0
 10
17.4560915743
 20
13.8899679274
 30
0.0
 10
17.4546135524
 20
13.8891640842
 30
0.0
 10
17.45323256
 20
13.888235217
 30
0.0
 10
17.4508609059
 20
13.88655161
 30
0.0
 10
17.4474493023
 20
13.8841767696
 30
0.0
 10
17.4420039111
 20
13.8803600592
 30
0.0
 10
17.435192468
 20
13.8755951637
 30
0.0
 10
17.428383373
 20
13.8708275056
 30
0.0
 10
17.4229342248
 20
13.8670152155
 30
0.0
 10
17.4188515715
 20
13.8641521461
 30
0.0
 10
17.4154361145
 20
13.8617783294
 30
0.0
 10
17.412733435
 20
13.8598522232
 30
0.0
 10
17.4106253145
 20
13.8584815576
 30
0.0
 10
17.4088267946
 20
13.8568287619
 30
0.0
 10
17.4063207785
 20
13.8547234405
 30
0.0
 10
17.4019855378
 20
13.8509933189
 30
0.0
 10
17.393278553
 20
13.8435661535
 30
0.0
 10
17.3845894385
 20
13.8361237577
 30
0.0
 10
17.3771294063
 20
13.8297535709
 30
0.0
 10
17.3740329162
 20
13.8270915629
 30
0.0
 10
17.3718415433
 20
13.8252436722
 30
0.0
 10
17.3706266243
 20
13.8241634668
 30
0.0
 10
17.3695521761
 20
13.8229918581
 30
0.0
 10
17.3681611012
 20
13.8215585898
 30
0.0
 10
17.3648620493
 20
13.8180930261
 30
0.0
 10
17.3598967299
 20
13.8129055685
 30
0.0
 10
17.3532865366
 20
13.8059823289
 30
0.0
 10
17.3466711282
 20
13.7990623793
 30
0.0
 10
17.3417175428
 20
13.7938675194
 30
0.0
 10
17.3384034974
 20
13.7904114141
 30
0.0
 10
17.3370398562
 20
13.7889608395
 30
0.0
 10
17.3359088024
 20
13.7878249402
 30
0.0
 10
17.334924543
 20
13.7865992241
 30
0.0
 10
17.333270293
 20
13.7844124898
 30
0.0
 10
17.3308714933
 20
13.781310357
 30
0.0
 10
17.327053301
 20
13.7763347762
 30
0.0
 10
17.3222737483
 20
13.7701194685
 30
0.0
 10
17.3146302884
 20
13.7601726361
 30
0.0
 10
17.308896833
 20
13.7527130383
 30
0.0
 10
17.3050747206
 20
13.7477398562
 30
0.0
  0
LINE
  5
362
100
AcDbEntity
  8
02__ASM_ALL_AXES
100
AcDbLine
 62
7
  6
BYLAYER
 10
17.3050747173
 20
13.7477398514
 11
17.3021039551
 21
13.743323918
  0
SPLINE
  5
363
100
AcDbEntity
  8
02__ASM_ALL_AXES
100
AcDbSpline
 62
7
  6
BYLAYER
 70
0
 71
3
 72
32
 73
28
 74
0
 42
0.0000001
 43
0.0000001
 44
0.0000000001
 40
0.0
 40
0.0
 40
0.0
 40
0.0
 40
0.0625
 40
0.125
 40
0.15625
 40
0.171875
 40
0.1875
 40
0.21875
 40
0.25
 40
0.3125
 40
0.34375
 40
0.375
 40
0.4375
 40
0.46875
 40
0.5
 40
0.53125
 40
0.5625
 40
0.625
 40
0.65625
 40
0.6875
 40
0.75
 40
0.8125
 40
0.828125
 40
0.84375
 40
0.875
 40
0.9375
 40
1.0
 40
1.0
 40
1.0
 40
1.0
 10
17.3021039551
 20
13.7433239181
 30
0.0
 10
17.3009715913
 20
13.7415398856
 30
0.0
 10
17.2987066238
 20
13.7379748094
 30
0.0
 10
17.2958766135
 20
13.7335035199
 30
0.0
 10
17.293893403
 20
13.7304010774
 30
0.0
 10
17.2927635572
 20
13.7285856619
 30
0.0
 10
17.291646751
 20
13.7266098647
 30
0.0
 10
17.2902456857
 20
13.7241951482
 30
0.0
 10
17.2880102708
 20
13.7203001737
 30
0.0
 10
17.2857533019
 20
13.7164176715
 30
0.0
 10
17.2835562777
 20
13.7125213235
 30
0.0
 10
17.2815736129
 20
13.7085868273
 30
0.0
 10
17.2795210441
 20
13.7046643602
 30
0.0
 10
17.2775174178
 20
13.7007344171
 30
0.0
 10
17.2759377745
 20
13.6977973585
 30
0.0
 10
17.2746413544
 20
13.694822443
 30
0.0
 10
17.2728100606
 20
13.6908694789
 30
0.0
 10
17.2710287221
 20
13.6869106887
 30
0.0
 10
17.2691745678
 20
13.6829591844
 30
0.0
 10
17.2675450699
 20
13.6789863051
 30
0.0
 10
17.2655782141
 20
13.6740241909
 30
0.0
 10
17.2638024217
 20
13.6695238232
 30
0.0
 10
17.2625929221
 20
13.6665790273
 30
0.0
 10
17.2618574559
 20
13.6644832832
 30
0.0
 10
17.2606048926
 20
13.6607517103
 30
0.0
 10
17.2587973573
 20
13.6554545871
 30
0.0
 10
17.2573568633
 20
13.6512066195
 30
0.0
 10
17.2566359245
 20
13.6490839194
 30
0.0
  0
SPLINE
  5
364
100
AcDbEntity
  8
0
100
AcDbSpline
 62
7
  6
BYLAYER
 70
0
 71
3
 72
21
 73
17
 74
0
 42
0.0000001
 43
0.0000001
 44
0.0000000001
 40
0.0
 40
0.0
 40
0.0
 40
0.0
 40
0.1324824576
 40
0.2011727212
 40
0.2707179116
 40
0.4097755208
 40
0.4782500517
 40
0.5452191035
 40
0.6102110248
 40
0.6728614696
 40
0.7329450328
 40
0.7904063118
 40
0.8453873094
 40
0.8982431366
 40
0.9495364316
 40
1.0
 40
1.0
 40
1.0
 40
1.0
 10
17.7614444999
 20
14.0407473726
 30
0.0
 10
17.7186085212
 20
14.0407473726
 30
0.0
 10
17.6533518077
 20
14.0330480023
 30
0.0
 10
17.5688731327
 20
14.0097916147
 30
0.0
 10
17.4850894197
 20
13.9775299239
 30
0.0
 10
17.4064441935
 20
13.933209448
 30
0.0
 10
17.3363712809
 20
13.8785445957
 30
0.0
 10
17.2895617284
 20
13.8335400238
 30
0.0
 10
17.2491224726
 20
13.7851601899
 30
0.0
 10
17.2157832408
 20
13.7342605535
 30
0.0
 10
17.1901631722
 20
13.6817458504
 30
0.0
 10
17.172752604
 20
13.6285459629
 30
0.0
 10
17.1639087972
 20
13.5756129941
 30
0.0
 10
17.1638533662
 20
13.523906688
 30
0.0
 10
17.1726398318
 20
13.4744267404
 30
0.0
 10
17.1843650169
 20
13.4434407415
 30
0.0
 10
17.1915549247
 20
13.4287937297
 30
0.0
  0
SPLINE
  5
365
100
AcDbEntity
  8
0
100
AcDbSpline
 62
7
  6
BYLAYER
 70
0
 71
3
 72
14
 73
10
 74
0
 42
0.0000001
 43
0.0000001
 44
0.0000000001
 40
0.0
 40
0.0
 40
0.0
 40
0.0
 40
0.2773975432
 40
0.4084919385
 40
0.5344224091
 40
0.6556036481
 40
0.772814389
 40
0.8871599561
 40
1.0
 40
1.0
 40
1.0
 40
1.0
 10
17.7614444999
 20
14.0407473726
 30
0.0
 10
17.797453951
 20
14.0407473726
 30
0.0
 10
17.8508054433
 20
14.0354495445
 30
0.0
 10
17.9175998013
 20
14.0161870744
 30
0.0
 10
17.962767326
 20
13.9965512192
 30
0.0
 10
18.0032134232
 20
13.9717225567
 30
0.0
 10
18.0383268252
 20
13.9420395846
 30
0.0
 10
18.0675402873
 20
13.9079449259
 30
0.0
 10
18.0828131092
 20
13.8825232624
 30
0.0
 10
18.0892677516
 20
13.8693741059
 30
0.0
  0
SPLINE
  5
366
100
AcDbEntity
  8
02___PRT_ALL_AXES
100
AcDbSpline
 62
7
  6
BYLAYER
 70
0
 71
3
 72
14
 73
10
 74
0
 42
0.0000001
 43
0.0000001
 44
0.0000000001
 40
0.0
 40
0.0
 40
0.0
 40
0.0
 40
0.2699413971
 40
0.409422653
 40
0.5451038101
 40
0.6729232389
 40
0.7905540687
 40
0.898363335
 40
1.0
 40
1.0
 40
1.0
 40
1.0
 10
17.9462896701
 20
13.4915427005
 30
0.0
 10
17.9535400011
 20
13.4915427005
 30
0.0
 10
17.964643706
 20
13.4941681976
 30
0.0
 10
17.9774361226
 20
13.5013863086
 30
0.0
 10
17.9857098272
 20
13.5084937941
 30
0.0
 10
17.9919223971
 20
13.5167406304
 30
0.0
 10
17.9956302824
 20
13.5256040628
 30
0.0
 10
17.9964893592
 20
13.5345008047
 30
0.0
 10
17.9949847364
 20
13.5400812767
 30
0.0
 10
17.9937830027
 20
13.5425323817
 30
0.0
  0
SPLINE
  5
367
100
AcDbEntity
  8
02___PRT_ALL_AXES
100
AcDbSpline
 62
7
  6
BYLAYER
 70
0
 71
3
 72
19
 73
15
 74
0
 42
0.0000001
 43
0.0000001
 44
0.0000000001
 40
0.0
 40
0.0
 40
0.0
 40
0.0
 40
0.0533440231
 40
0.1095469655
 40
0.1691887665
 40
0.2324853322
 40
0.3679987391
 40
0.5101117299
 40
0.6498836108
 40
0.779221135
 40
0.8387828776
 40
0.8948654775
 40
0.9481769832
 40
1.0
 40
1.0
 40
1.0
 40
1.0
 10
17.6598234797
 20
13.3244633861
 30
0.0
 10
17.661074994
 20
13.3230195679
 30
0.0
 10
17.664034285
 20
13.3203752803
 30
0.0
 10
17.6693886486
 20
13.3174437974
 30
0.0
 10
17.6755625212
 20
13.3155520734
 30
0.0
 10
17.6847955353
 20
13.3144584188
 30
0.0
 10
17.6971067144
 20
13.3159964186
 30
0.0
 10
17.7110657767
 20
13.3217944647
 30
0.0
 10
17.7228986627
 20
13.3308474828
 30
0.0
 10
17.7299741042
 20
13.3405428155
 30
0.0
 10
17.7330519131
 20
13.348813802
 30
0.0
 10
17.7339802416
 20
13.3548431224
 30
0.0
 10
17.733533197
 20
13.3606540863
 30
0.0
 10
17.7323020503
 20
13.3642644922
 30
0.0
 10
17.7314810492
 20
13.3659293126
 30
0.0
  0
SPLINE
  5
368
100
AcDbEntity
  8
02___PRT_ALL_AXES
100
AcDbSpline
 62
7
  6
BYLAYER
 70
0
 71
3
 72
10
 73
6
 74
0
 42
0.0000001
 43
0.0000001
 44
0.0000000001
 40
0.0
 40
0.0
 40
0.0
 40
0.0
 40
0.5161344746
 40
0.7604943016
 40
1.0
 40
1.0
 40
1.0
 40
1.0
 10
17.4387410028
 20
13.3475423765
 30
0.0
 10
17.4396947499
 20
13.3506287033
 30
0.0
 10
17.4404091676
 20
13.3554703073
 30
0.0
 10
17.4394793977
 20
13.3616923479
 30
0.0
 10
17.4384265494
 20
13.3645601483
 30
0.0
 10
17.4377652469
 20
13.3659053861
 30
0.0
  0
SPLINE
  5
369
100
AcDbEntity
  8
02___PRT_ALL_AXES
100
AcDbSpline
 62
7
  6
BYLAYER
 70
0
 71
3
 72
12
 73
8
 74
0
 42
0.0000001
 43
0.0000001
 44
0.0000000001
 40
0.0
 40
0.0
 40
0.0
 40
0.0
 40
0.28537213
 40
0.5482032364
 40
0.783336304
 40
0.8930741235
 40
1.0
 40
1.0
 40
1.0
 40
1.0
 10
17.2672563388
 20
13.5011023314
 30
0.0
 10
17.2710977746
 20
13.5036894085
 30
0.0
 10
17.2779093482
 20
13.5095979162
 30
0.0
 10
17.2849719441
 20
13.5203855947
 30
0.0
 10
17.2873266298
 20
13.5302566152
 30
0.0
 10
17.2865926639
 20
13.5376103134
 30
0.0
 10
17.2854245695
 20
13.5409691406
 30
0.0
 10
17.2846612575
 20
13.5425275718
 30
0.0
  0
SPLINE
  5
36A
100
AcDbEntity
  8
02___PRT_ALL_AXES
100
AcDbSpline
 62
7
  6
BYLAYER
 70
0
 71
3
 72
14
 73
10
 74
0
 42
0.0000001
 43
0.0000001
 44
0.0000000001
 40
0.0
 40
0.0
 40
0.0
 40
0.0
 40
0.2699413971
 40
0.409422653
 40
0.5451038101
 40
0.6729232389
 40
0.7905540687
 40
0.898363335
 40
1.0
 40
1.0
 40
1.0
 40
1.0
 10
17.3143608126
 20
13.7413478926
 30
0.0
 10
17.3216111435
 20
13.7413478926
 30
0.0
 10
17.3327148484
 20
13.7439733897
 30
0.0
 10
17.3455072651
 20
13.7511915006
 30
0.0
 10
17.3537809697
 20
13.7582989861
 30
0.0
 10
17.3599935396
 20
13.7665458224
 30
0.0
 10
17.3637014249
 20
13.7754092549
 30
0.0
 10
17.3645605017
 20
13.7843059967
 30
0.0
 10
17.3630558788
 20
13.7898864687
 30
0.0
 10
17.3618541452
 20
13.7923375737
 30
0.0
  0
SPLINE
  5
36B
100
AcDbEntity
  8
02___PRT_ALL_AXES
100
AcDbSpline
 62
7
  6
BYLAYER
 70
0
 71
3
 72
19
 73
15
 74
0
 42
0.0000001
 43
0.0000001
 44
0.0000000001
 40
0.0
 40
0.0
 40
0.0
 40
0.0
 40
0.0533440231
 40
0.1095469655
 40
0.1691887665
 40
0.2324853322
 40
0.3679987391
 40
0.5101117299
 40
0.6498836108
 40
0.779221135
 40
0.8387828776
 40
0.8948654775
 40
0.9481769832
 40
1.0
 40
1.0
 40
1.0
 40
1.0
 10
17.5524612622
 20
13.9275464687
 30
0.0
 10
17.5537127766
 20
13.9261026505
 30
0.0
 10
17.5566720676
 20
13.9234583628
 30
0.0
 10
17.5620264312
 20
13.9205268799
 30
0.0
 10
17.5682003038
 20
13.9186351559
 30
0.0
 10
17.5774333179
 20
13.9175415013
 30
0.0
 10
17.589744497
 20
13.9190795012
 30
0.0
 10
17.6037035593
 20
13.9248775473
 30
0.0
 10
17.6155364453
 20
13.9339305654
 30
0.0
 10
17.6226118868
 20
13.9436258981
 30
0.0
 10
17.6256896957
 20
13.9518968845
 30
0.0
 10
17.6266180241
 20
13.9579262049
 30
0.0
 10
17.6261709796
 20
13.9637371688
 30
0.0
 10
17.6249398329
 20
13.9673475747
 30
0.0
 10
17.6241188318
 20
13.9690123952
 30
0.0
  0
SPLINE
  5
36C
100
AcDbEntity
  8
02___PRT_ALL_AXES
100
AcDbSpline
 62
7
  6
BYLAYER
 70
0
 71
3
 72
10
 73
6
 74
0
 42
0.0000001
 43
0.0000001
 44
0.0000000001
 40
0.0
 40
0.0
 40
0.0
 40
0.0
 40
0.5161344746
 40
0.7604943016
 40
1.0
 40
1.0
 40
1.0
 40
1.0
 10
17.9188367564
 20
13.9506254591
 30
0.0
 10
17.9197905035
 20
13.9537117858
 30
0.0
 10
17.9205049212
 20
13.9585533899
 30
0.0
 10
17.9195751513
 20
13.9647754305
 30
0.0
 10
17.918522303
 20
13.9676432308
 30
0.0
 10
17.9178610005
 20
13.9689884687
 30
0.0
  0
SPLINE
  5
36D
100
AcDbEntity
  8
02___PRT_ALL_AXES
100
AcDbSpline
 62
7
  6
BYLAYER
 70
0
 71
3
 72
12
 73
8
 74
0
 42
0.0000001
 43
0.0000001
 44
0.0000000001
 40
0.0
 40
0.0
 40
0.0
 40
0.0
 40
0.28537213
 40
0.5482032364
 40
0.783336304
 40
0.8930741235
 40
1.0
 40
1.0
 40
1.0
 40
1.0
 10
18.0535764822
 20
13.7509075234
 30
0.0
 10
18.057417918
 20
13.7534946005
 30
0.0
 10
18.0642294916
 20
13.7594031082
 30
0.0
 10
18.0712920875
 20
13.7701907867
 30
0.0
 10
18.0736467732
 20
13.7800618072
 30
0.0
 10
18.0729128073
 20
13.7874155055
 30
0.0
 10
18.0717447129
 20
13.7907743327
 30
0.0
 10
18.0709814009
 20
13.7923327638
 30
0.0
  0
SPLINE
  5
36E
100
AcDbEntity
  8
0
100
AcDbSpline
 62
7
  6
BYLAYER
 70
0
 71
3
 72
11
 73
7
 74
0
 42
0.0000001
 43
0.0000001
 44
0.0000000001
 40
0.0
 40
0.0
 40
0.0
 40
0.0
 40
0.2643796584
 40
0.5171042956
 40
0.7609087708
 40
1.0
 40
1.0
 40
1.0
 40
1.0
 10
17.8450915591
 20
13.6490839178
 30
0.0
 10
17.8477014304
 20
13.6575294645
 30
0.0
 10
17.8515229254
 20
13.6744885249
 30
0.0
 10
17.8526759405
 20
13.7000457362
 30
0.0
 10
17.8490381251
 20
13.7245287491
 30
0.0
 10
17.8434262569
 20
13.7398127396
 30
0.0
 10
17.8399039736
 20
13.7469890121
 30
0.0
  0
SPLINE
  5
36F
100
AcDbEntity
  8
0
100
AcDbSpline
 62
7
  6
BYLAYER
 70
0
 71
3
 72
19
 73
15
 74
0
 42
0.0000001
 43
0.0000001
 44
0.0000000001
 40
0.0
 40
0.0
 40
0.0
 40
0.0
 40
0.0507462123
 40
0.1026303083
 40
0.1566098205
 40
0.2133407452
 40
0.3356277874
 40
0.4012099063
 40
0.46901089
 40
0.6081793836
 40
0.7469386969
 40
0.8142573344
 40
0.8792050208
 40
1.0
 40
1.0
 40
1.0
 40
1.0
 10
17.4409187028
 20
13.5511788235
 30
0.0
 10
17.4446701391
 20
13.5435356764
 30
0.0
 10
17.4540132884
 20
13.5288757153
 30
0.0
 10
17.472714874
 20
13.5101561087
 30
0.0
 10
17.4956375253
 20
13.4950415689
 30
0.0
 10
17.5318341943
 20
13.4798089202
 30
0.0
 10
17.5731785879
 20
13.473768473
 30
0.0
 10
17.6160788819
 20
13.4760495159
 30
0.0
 10
17.6611922509
 20
13.4842003218
 30
0.0
 10
17.716037158
 20
13.5046898347
 30
0.0
 10
17.7648673597
 20
13.5368567896
 30
0.0
 10
17.7977976855
 20
13.5683910842
 30
0.0
 10
17.8245147988
 20
13.6014602916
 30
0.0
 10
17.8391078117
 20
13.6297205042
 30
0.0
 10
17.8450915591
 20
13.6490839178
 30
0.0
  0
SPLINE
  5
370
100
AcDbEntity
  8
02___PRT_ALL_AXES
100
AcDbSpline
 62
7
  6
BYLAYER
 70
0
 71
3
 72
13
 73
9
 74
0
 42
0.0000001
 43
0.0000001
 44
0.0000000001
 40
0.0
 40
0.0
 40
0.0
 40
0.0
 40
0.1031957305
 40
0.210660594
 40
0.3254562861
 40
0.4488597387
 40
0.717263436
 40
1.0
 40
1.0
 40
1.0
 40
1.0
 10
17.9961614189
 20
13.7556402638
 30
0.0
 10
17.9971340827
 20
13.7536544051
 30
0.0
 10
17.9997709066
 20
13.7498894644
 30
0.0
 10
18.0053335443
 20
13.745541226
 30
0.0
 10
18.0122184711
 20
13.7426131917
 30
0.0
 10
18.0229791053
 20
13.7406954797
 30
0.0
 10
18.0376492149
 20
13.742452249
 30
0.0
 10
18.0485513697
 20
13.7475232801
 30
0.0
 10
18.0535764822
 20
13.7509075234
 30
0.0
  0
SPLINE
  5
371
100
AcDbEntity
  8
0
100
AcDbSpline
 62
7
  6
BYLAYER
 70
0
 71
3
 72
11
 73
7
 74
0
 42
0.0000001
 43
0.0000001
 44
0.0000000001
 40
0.0
 40
0.0
 40
0.0
 40
0.0
 40
0.2926843773
 40
0.5579282929
 40
0.79371364
 40
1.0
 40
1.0
 40
1.0
 40
1.0
 10
18.1502525574
 20
12.6599568964
 30
0.0
 10
18.1530636608
 20
12.6690536303
 30
0.0
 10
18.1590493438
 20
12.6862119575
 30
0.0
 10
18.1697121293
 20
12.7097745752
 30
0.0
 10
18.1814791675
 20
12.7296068101
 30
0.0
 10
18.1905450968
 20
12.7408732483
 30
0.0
 10
18.1952569808
 20
12.7456513634
 30
0.0
  0
SPLINE
  5
372
100
AcDbEntity
  8
0
100
AcDbSpline
 62
7
  6
BYLAYER
 70
0
 71
3
 72
11
 73
7
 74
0
 42
0.0000001
 43
0.0000001
 44
0.0000000001
 40
0.0
 40
0.0
 40
0.0
 40
0.0
 40
0.2821919215
 40
0.5381575754
 40
0.774417526
 40
1.0
 40
1.0
 40
1.0
 40
1.0
 10
18.1952569808
 20
12.7456513634
 30
0.0
 10
18.1982525672
 20
12.7486890564
 30
0.0
 10
18.2043547125
 20
12.7541240116
 30
0.0
 10
18.2143303627
 20
12.7603778365
 30
0.0
 10
18.2245761438
 20
12.7641989162
 30
0.0
 10
18.231584686
 20
12.7650661097
 30
0.0
 10
18.2349951209
 20
12.7650650559
 30
0.0
  0
SPLINE
  5
373
100
AcDbEntity
  8
02___PRT_ALL_AXES
100
AcDbSpline
 62
7
  6
BYLAYER
 70
0
 71
3
 72
11
 73
7
 74
0
 42
0.0000001
 43
0.0000001
 44
0.0000000001
 40
0.0
 40
0.0
 40
0.0
 40
0.0
 40
0.3156806228
 40
0.5821591739
 40
0.8046012074
 40
1.0
 40
1.0
 40
1.0
 40
1.0
 10
18.1306605524
 20
12.8763091909
 30
0.0
 10
18.13143185
 20
12.8747374518
 30
0.0
 10
18.1330370739
 20
12.8719194183
 30
0.0
 10
18.1359249468
 20
12.8684747832
 30
0.0
 10
18.1390810184
 20
12.8662576358
 30
0.0
 10
18.1414162962
 20
12.8657161845
 30
0.0
 10
18.1424999926
 20
12.8657173551
 30
0.0
  0
SPLINE
  5
374
100
AcDbEntity
  8
02___PRT_ALL_AXES
100
AcDbSpline
 62
7
  6
BYLAYER
 70
0
 71
3
 72
21
 73
17
 74
0
 42
0.0000001
 43
0.0000001
 44
0.0000000001
 40
0.0
 40
0.0
 40
0.0
 40
0.0
 40
0.0801866115
 40
0.1343893283
 40
0.1980477235
 40
0.2699655022
 40
0.348329046
 40
0.5151616757
 40
0.5987392803
 40
0.6790203582
 40
0.7536786352
 40
0.820721595
 40
0.8786760147
 40
0.9269360318
 40
0.9663150211
 40
1.0
 40
1.0
 40
1.0
 40
1.0
 10
18.0497416416
 20
12.6700686116
 30
0.0
 10
18.046935891
 20
12.6692392739
 30
0.0
 10
18.0431307939
 20
12.665457658
 30
0.0
 10
18.039635827
 20
12.6592098745
 30
0.0
 10
18.0371186145
 20
12.652711106
 30
0.0
 10
18.0351315413
 20
12.6451572222
 30
0.0
 10
18.0332048332
 20
12.6337339976
 30
0.0
 10
18.0326258855
 20
12.6216986923
 30
0.0
 10
18.0333329114
 20
12.6096460178
 30
0.0
 10
18.0345106311
 20
12.6010132178
 30
0.0
 10
18.0362864253
 20
12.5930992939
 30
0.0
 10
18.0385975093
 20
12.586174718
 30
0.0
 10
18.0413674772
 20
12.5804655307
 30
0.0
 10
18.0445200855
 20
12.5761435119
 30
0.0
 10
18.0480293093
 20
12.5733157782
 30
0.0
 10
18.050717627
 20
12.5726094157
 30
0.0
 10
18.0519466786
 20
12.57261327
 30
0.0
  0
SPLINE
  5
375
100
AcDbEntity
  8
02___PRT_ALL_AXES
100
AcDbSpline
 62
7
  6
BYLAYER
 70
0
 71
3
 72
18
 73
14
 74
0
 42
0.0000001
 43
0.0000001
 44
0.0000000001
 40
0.0
 40
0.0
 40
0.0
 40
0.0
 40
0.1393852211
 40
0.2927819298
 40
0.4502785
 40
0.60149873
 40
0.736802521
 40
0.7960744217
 40
0.8488586442
 40
0.894900179
 40
0.9345235345
 40
0.9688231352
 40
1.0
 40
1.0
 40
1.0
 40
1.0
 10
18.0536678961
 20
12.2801653485
 30
0.0
 10
18.0524793055
 20
12.2763190681
 30
0.0
 10
18.0506625608
 20
12.2680264313
 30
0.0
 10
18.0494130951
 20
12.2550584319
 30
0.0
 10
18.0495619871
 20
12.2416850114
 30
0.0
 10
18.0510988708
 20
12.2289288323
 30
0.0
 10
18.0535208539
 20
12.2191966339
 30
0.0
 10
18.0561490011
 20
12.2125424268
 30
0.0
 10
18.0582714845
 20
12.2084871824
 30
0.0
 10
18.0605996537
 20
12.2052167104
 30
0.0
 10
18.0631038104
 20
12.2027847234
 30
0.0
 10
18.0657707814
 20
12.2012518969
 30
0.0
 10
18.0676739468
 20
12.2008879453
 30
0.0
 10
18.0685744009
 20
12.2008867908
 30
0.0
  0
SPLINE
  5
376
100
AcDbEntity
  8
02___PRT_ALL_AXES
100
AcDbSpline
 62
7
  6
BYLAYER
 70
0
 71
3
 72
15
 73
11
 74
0
 42
0.0000001
 43
0.0000001
 44
0.0000000001
 40
0.0
 40
0.0
 40
0.0
 40
0.0
 40
0.1734563934
 40
0.3392725583
 40
0.4926163165
 40
0.6299720811
 40
0.7487638761
 40
0.8480145523
 40
0.9296139082
 40
1.0
 40
1.0
 40
1.0
 40
1.0
 10
18.1638080764
 20
12.0115914097
 30
0.0
 10
18.1639382938
 20
12.0086863581
 30
0.0
 10
18.1643938361
 20
12.0030108519
 30
0.0
 10
18.1656704972
 20
11.9948431231
 30
0.0
 10
18.1674938467
 20
11.9873987437
 30
0.0
 10
18.1698017897
 20
11.9809179216
 30
0.0
 10
18.1725199363
 20
11.9755905877
 30
0.0
 10
18.1755880902
 20
11.9715665691
 30
0.0
 10
18.1789799495
 20
11.9689493842
 30
0.0
 10
18.1815467257
 20
11.9682918652
 30
0.0
 10
18.1827267365
 20
11.9682931268
 30
0.0
  0
SPLINE
  5
377
100
AcDbEntity
  8
02___PRT_ALL_AXES
100
AcDbSpline
 62
7
  6
BYLAYER
 70
0
 71
3
 72
11
 73
7
 74
0
 42
0.0000001
 43
0.0000001
 44
0.0000000001
 40
0.0
 40
0.0
 40
0.0
 40
0.0
 40
0.3156806228
 40
0.5821591739
 40
0.8046012074
 40
1.0
 40
1.0
 40
1.0
 40
1.0
 10
18.3156435588
 20
12.021673766
 30
0.0
 10
18.3164148564
 20
12.0201020268
 30
0.0
 10
18.3180200803
 20
12.0172839934
 30
0.0
 10
18.3209079532
 20
12.0138393583
 30
0.0
 10
18.3240640248
 20
12.0116222108
 30
0.0
 10
18.3263993026
 20
12.0110807596
 30
0.0
 10
18.327482999
 20
12.0110819302
 30
0.0
  0
SPLINE
  5
378
100
AcDbEntity
  8
02___PRT_ALL_AXES
100
AcDbSpline
 62
7
  6
BYLAYER
 70
0
 71
3
 72
21
 73
17
 74
0
 42
0.0000001
 43
0.0000001
 44
0.0000000001
 40
0.0
 40
0.0
 40
0.0
 40
0.0
 40
0.0801866115
 40
0.1343893283
 40
0.1980477235
 40
0.2699655022
 40
0.348329046
 40
0.5151616757
 40
0.5987392803
 40
0.6790203582
 40
0.7536786352
 40
0.820721595
 40
0.8786760147
 40
0.9269360318
 40
0.9663150211
 40
1.0
 40
1.0
 40
1.0
 40
1.0
 10
18.41587709
 20
12.4016427039
 30
0.0
 10
18.4130713394
 20
12.4008133663
 30
0.0
 10
18.4092662423
 20
12.3970317504
 30
0.0
 10
18.4057712755
 20
12.3907839668
 30
0.0
 10
18.403254063
 20
12.3842851983
 30
0.0
 10
18.4012669898
 20
12.3767313145
 30
0.0
 10
18.3993402817
 20
12.3653080899
 30
0.0
 10
18.398761334
 20
12.3532727847
 30
0.0
 10
18.3994683598
 20
12.3412201102
 30
0.0
 10
18.4006460795
 20
12.3325873102
 30
0.0
 10
18.4024218737
 20
12.3246733863
 30
0.0
 10
18.4047329578
 20
12.3177488104
 30
0.0
 10
18.4075029256
 20
12.3120396231
 30
0.0
 10
18.4106555339
 20
12.3077176043
 30
0.0
 10
18.4141647577
 20
12.3048898706
 30
0.0
 10
18.4168530755
 20
12.304183508
 30
0.0
 10
18.4180821271
 20
12.3041873623
 30
0.0
  0
SPLINE
  5
379
100
AcDbEntity
  8
02___PRT_ALL_AXES
100
AcDbSpline
 62
7
  6
BYLAYER
 70
0
 71
3
 72
18
 73
14
 74
0
 42
0.0000001
 43
0.0000001
 44
0.0000000001
 40
0.0
 40
0.0
 40
0.0
 40
0.0
 40
0.1393852211
 40
0.2927819298
 40
0.4502785
 40
0.60149873
 40
0.736802521
 40
0.7960744217
 40
0.8488586442
 40
0.894900179
 40
0.9345235345
 40
0.9688231352
 40
1.0
 40
1.0
 40
1.0
 40
1.0
 10
18.3864786065
 20
12.7551892143
 30
0.0
 10
18.385290016
 20
12.7513429339
 30
0.0
 10
18.3834732713
 20
12.7430502971
 30
0.0
 10
18.3822238056
 20
12.7300822978
 30
0.0
 10
18.3823726975
 20
12.7167088773
 30
0.0
 10
18.3839095813
 20
12.7039526982
 30
0.0
 10
18.3863315643
 20
12.6942204998
 30
0.0
 10
18.3889597116
 20
12.6875662927
 30
0.0
 10
18.391082195
 20
12.6835110483
 30
0.0
 10
18.3934103642
 20
12.6802405763
 30
0.0
 10
18.3959145209
 20
12.6778085893
 30
0.0
 10
18.3985814919
 20
12.6762757627
 30
0.0
 10
18.4004846573
 20
12.6759118112
 30
0.0
 10
18.4013851114
 20
12.6759106567
 30
0.0
  0
SPLINE
  5
37A
100
AcDbEntity
  8
02___PRT_ALL_AXES
100
AcDbSpline
 62
7
  6
BYLAYER
 70
0
 71
3
 72
15
 73
11
 74
0
 42
0.0000001
 43
0.0000001
 44
0.0000000001
 40
0.0
 40
0.0
 40
0.0
 40
0.0
 40
0.1734563934
 40
0.3392725583
 40
0.4926163165
 40
0.6299720811
 40
0.7487638761
 40
0.8480145523
 40
0.9296139082
 40
1.0
 40
1.0
 40
1.0
 40
1.0
 10
18.2683380484
 20
12.9518025109
 30
0.0
 10
18.2684682658
 20
12.9488974593
 30
0.0
 10
18.2689238081
 20
12.9432219531
 30
0.0
 10
18.2702004692
 20
12.9350542243
 30
0.0
 10
18.2720238187
 20
12.9276098449
 30
0.0
 10
18.2743317617
 20
12.9211290228
 30
0.0
 10
18.2770499083
 20
12.9158016889
 30
0.0
 10
18.2801180621
 20
12.9117776703
 30
0.0
 10
18.2835099214
 20
12.9091604854
 30
0.0
 10
18.2860766976
 20
12.9085029664
 30
0.0
 10
18.2872567085
 20
12.908504228
 30
0.0
  0
SPLINE
  5
37B
100
AcDbEntity
  8
02___PRT_ALL_AXES
100
AcDbSpline
 62
7
  6
BYLAYER
 70
0
 71
3
 72
17
 73
13
 74
0
 42
0.0000001
 43
0.0000001
 44
0.0000000001
 40
0.0
 40
0.0
 40
0.0
 40
0.0
 40
0.050785639
 40
0.1027115068
 40
0.2130418717
 40
0.3354275365
 40
0.4686469943
 40
0.6079206891
 40
0.67794138
 40
0.747024586
 40
0.879108976
 40
1.0
 40
1.0
 40
1.0
 40
1.0
 10
17.8430574295
 20
13.9322624494
 30
0.0
 10
17.8437616523
 20
13.9308299019
 30
0.0
 10
17.8455150331
 20
13.928082272
 30
0.0
 10
17.8502774622
 20
13.923311144
 30
0.0
 10
17.8584389456
 20
13.9191149723
 30
0.0
 10
17.8699806935
 20
13.9174491308
 30
0.0
 10
17.8824239456
 20
13.9189869176
 30
0.0
 10
17.89260343
 20
13.9227928045
 30
0.0
 10
17.9001794003
 20
13.9272037173
 30
0.0
 10
17.9070122665
 20
13.9323271678
 30
0.0
 10
17.9139988028
 20
13.939797428
 30
0.0
 10
17.9177148689
 20
13.9469950298
 30
0.0
 10
17.9188367564
 20
13.9506254591
 30
0.0
  0
SPLINE
  5
37C
100
AcDbEntity
  8
02___PRT_ALL_AXES
100
AcDbSpline
 62
7
  6
BYLAYER
 70
0
 71
3
 72
11
 73
7
 74
0
 42
0.0000001
 43
0.0000001
 44
0.0000000001
 40
0.0
 40
0.0
 40
0.0
 40
0.0
 40
0.2268632804
 40
0.4650145788
 40
0.722100556
 40
1.0
 40
1.0
 40
1.0
 40
1.0
 10
17.2870396736
 20
13.7556354539
 30
0.0
 10
17.2881180762
 20
13.7534358999
 30
0.0
 10
17.2911354932
 20
13.7492835771
 30
0.0
 10
17.2975903183
 20
13.744706787
 30
0.0
 10
17.3055577992
 20
13.7419234996
 30
0.0
 10
17.3113600274
 20
13.7413478926
 30
0.0
 10
17.3143608126
 20
13.7413478926
 30
0.0
  0
SPLINE
  5
37D
100
AcDbEntity
  8
02___PRT_ALL_AXES
100
AcDbSpline
 62
7
  6
BYLAYER
 70
0
 71
3
 72
13
 73
9
 74
0
 42
0.0000001
 43
0.0000001
 44
0.0000000001
 40
0.0
 40
0.0
 40
0.0
 40
0.0
 40
0.1031957305
 40
0.210660594
 40
0.3254562861
 40
0.4488597387
 40
0.717263436
 40
1.0
 40
1.0
 40
1.0
 40
1.0
 10
17.2098412755
 20
13.5058350717
 30
0.0
 10
17.2108139394
 20
13.5038492131
 30
0.0
 10
17.2134507632
 20
13.5000842723
 30
0.0
 10
17.219013401
 20
13.495736034
 30
0.0
 10
17.2258983277
 20
13.4928079996
 30
0.0
 10
17.236658962
 20
13.4908902876
 30
0.0
 10
17.2513290715
 20
13.4926470569
 30
0.0
 10
17.2622312263
 20
13.4977180881
 30
0.0
 10
17.2672563388
 20
13.5011023314
 30
0.0
  0
SPLINE
  5
37E
100
AcDbEntity
  8
02___PRT_ALL_AXES
100
AcDbSpline
 62
7
  6
BYLAYER
 70
0
 71
3
 72
17
 73
13
 74
0
 42
0.0000001
 43
0.0000001
 44
0.0000000001
 40
0.0
 40
0.0
 40
0.0
 40
0.0
 40
0.050785639
 40
0.1027115068
 40
0.2130418717
 40
0.3354275365
 40
0.4686469943
 40
0.6079206891
 40
0.67794138
 40
0.747024586
 40
0.879108976
 40
1.0
 40
1.0
 40
1.0
 40
1.0
 10
17.3629616759
 20
13.3291793669
 30
0.0
 10
17.3636658987
 20
13.3277468194
 30
0.0
 10
17.3654192796
 20
13.3249991894
 30
0.0
 10
17.3701817086
 20
13.3202280614
 30
0.0
 10
17.378343192
 20
13.3160318898
 30
0.0
 10
17.3898849399
 20
13.3143660483
 30
0.0
 10
17.4023281921
 20
13.315903835
 30
0.0
 10
17.4125076764
 20
13.3197097219
 30
0.0
 10
17.4200836467
 20
13.3241206348
 30
0.0
 10
17.4269165129
 20
13.3292440853
 30
0.0
 10
17.4339030492
 20
13.3367143455
 30
0.0
 10
17.4376191153
 20
13.3439119472
 30
0.0
 10
17.4387410028
 20
13.3475423765
 30
0.0
  0
SPLINE
  5
37F
100
AcDbEntity
  8
02___PRT_ALL_AXES
100
AcDbSpline
 62
7
  6
BYLAYER
 70
0
 71
3
 72
11
 73
7
 74
0
 42
0.0000001
 43
0.0000001
 44
0.0000000001
 40
0.0
 40
0.0
 40
0.0
 40
0.0
 40
0.2268632804
 40
0.4650145788
 40
0.722100556
 40
1.0
 40
1.0
 40
1.0
 40
1.0
 10
17.9189685312
 20
13.5058302618
 30
0.0
 10
17.9200469337
 20
13.5036307079
 30
0.0
 10
17.9230643507
 20
13.4994783851
 30
0.0
 10
17.9295191758
 20
13.4949015949
 30
0.0
 10
17.9374866567
 20
13.4921183076
 30
0.0
 10
17.9432888849
 20
13.4915427005
 30
0.0
 10
17.9462896701
 20
13.4915427005
 30
0.0
  0
SPLINE
  5
380
100
AcDbEntity
  8
0
100
AcDbSpline
 62
7
  6
BYLAYER
 70
0
 71
3
 72
18
 73
14
 74
0
 42
0.0000001
 43
0.0000001
 44
0.0000000001
 40
0.0
 40
0.0
 40
0.0
 40
0.0
 40
0.151148675
 40
0.2996847234
 40
0.4428216799
 40
0.5779445429
 40
0.7027450842
 40
0.7606846588
 40
0.8153846843
 40
0.8667115972
 40
0.9145829352
 40
0.9589886187
 40
1.0
 40
1.0
 40
1.0
 40
1.0
 10
17.2253757405
 20
12.4761477845
 30
0.0
 10
17.22515901
 20
12.5150023438
 30
0.0
 10
17.2269682159
 20
12.5920718437
 30
0.0
 10
17.2363460594
 20
12.7055846084
 30
0.0
 10
17.2521639622
 20
12.8142331349
 30
0.0
 10
17.2740618935
 20
12.9155920453
 30
0.0
 10
17.2975062949
 20
12.993986687
 30
0.0
 10
17.3191636603
 20
13.0510777816
 30
0.0
 10
17.3361786352
 20
13.0896654025
 30
0.0
 10
17.3542680038
 20
13.1248787467
 30
0.0
 10
17.3733409089
 20
13.1565246113
 30
0.0
 10
17.3932883522
 20
13.1844290699
 30
0.0
 10
17.4076663916
 20
13.2010827259
 30
0.0
 10
17.414991313
 20
13.2086651059
 30
0.0
  0
SPLINE
  5
381
100
AcDbEntity
  8
0
100
AcDbSpline
 62
7
  6
BYLAYER
 70
0
 71
3
 72
14
 73
10
 74
0
 42
0.0000001
 43
0.0000001
 44
0.0000000001
 40
0.0
 40
0.0
 40
0.0
 40
0.0
 40
0.1128400439
 40
0.227185611
 40
0.3443963519
 40
0.4655775909
 40
0.5915080615
 40
0.7226024568
 40
1.0
 40
1.0
 40
1.0
 40
1.0
 10
17.2254484656
 20
13.3597259553
 30
0.0
 10
17.231903108
 20
13.3465767988
 30
0.0
 10
17.2471759299
 20
13.3211551353
 30
0.0
 10
17.276389392
 20
13.2870604766
 30
0.0
 10
17.311502794
 20
13.2573775045
 30
0.0
 10
17.3519488912
 20
13.232548842
 30
0.0
 10
17.3971164159
 20
13.2129129868
 30
0.0
 10
17.4639107739
 20
13.1936505166
 30
0.0
 10
17.5172622661
 20
13.1883526886
 30
0.0
 10
17.5532717173
 20
13.1883526886
 30
0.0
  0
SPLINE
  5
382
100
AcDbEntity
  8
0
100
AcDbSpline
 62
7
  6
BYLAYER
 70
0
 71
3
 72
17
 73
13
 74
0
 42
0.0000001
 43
0.0000001
 44
0.0000000001
 40
0.0
 40
0.0
 40
0.0
 40
0.0
 40
0.053074348
 40
0.1065214063
 40
0.1606954812
 40
0.2159140492
 40
0.3303514418
 40
0.4514616649
 40
0.5797219902
 40
0.7147294364
 40
0.8553687567
 40
1.0
 40
1.0
 40
1.0
 40
1.0
 10
18.1231612924
 20
13.8003063315
 30
0.0
 10
18.1278195932
 20
13.7908166151
 30
0.0
 10
18.1360105545
 20
13.7711771172
 30
0.0
 10
18.1446916626
 20
13.7402937085
 30
0.0
 10
18.149714287
 20
13.7081725584
 30
0.0
 10
18.1515247102
 20
13.6635434482
 30
0.0
 10
18.1441568566
 20
13.6056251377
 30
0.0
 10
18.1209434953
 20
13.5365561785
 30
0.0
 10
18.0841236211
 20
13.4690293732
 30
0.0
 10
18.0348766119
 20
13.405034346
 30
0.0
 10
17.9747329289
 20
13.3464453101
 30
0.0
 10
17.9289765477
 20
13.3124383057
 30
0.0
 10
17.904813526
 20
13.2967527361
 30
0.0
  0
SPLINE
  5
383
100
AcDbEntity
  8
0
100
AcDbSpline
 62
7
  6
BYLAYER
 70
0
 71
3
 72
11
 73
7
 74
0
 42
0.0000001
 43
0.0000001
 44
0.0000000001
 40
0.0
 40
0.0
 40
0.0
 40
0.0
 40
0.2551003464
 40
0.5096111832
 40
0.7591862435
 40
1.0
 40
1.0
 40
1.0
 40
1.0
 10
17.904813526
 20
13.2967527361
 30
0.0
 10
17.8782427612
 20
13.2795041657
 30
0.0
 10
17.8226895687
 20
13.2487068887
 30
0.0
 10
17.7345083045
 20
13.2145543195
 30
0.0
 10
17.6441535847
 20
13.1933883166
 30
0.0
 10
17.583175972
 20
13.1883526886
 30
0.0
 10
17.5532717173
 20
13.1883526886
 30
0.0
  0
SPLINE
  5
384
100
AcDbEntity
  8
0
100
AcDbSpline
 62
7
  6
BYLAYER
 70
0
 71
3
 72
16
 73
12
 74
0
 42
0.0000001
 43
0.0000001
 44
0.0000000001
 40
0.0
 40
0.0
 40
0.0
 40
0.0
 40
0.1727277788
 40
0.3318329829
 40
0.476263825
 40
0.60572772
 40
0.720621193
 40
0.8224009997
 40
0.9139510908
 40
0.9573472248
 40
1.0
 40
1.0
 40
1.0
 40
1.0
 10
17.9631785951
 20
12.832626332
 30
0.0
 10
17.9680387948
 20
12.8483539442
 30
0.0
 10
17.9783233196
 20
12.8782907764
 30
0.0
 10
17.996259824
 20
12.9200384804
 30
0.0
 10
18.0159084643
 20
12.956402796
 30
0.0
 10
18.0370398312
 20
12.9869502182
 30
0.0
 10
18.0594590996
 20
13.0113317449
 30
0.0
 10
18.0829797042
 20
13.0292375295
 30
0.0
 10
18.1037908988
 20
13.0386149725
 30
0.0
 10
18.1203726999
 20
13.0422450593
 30
0.0
 10
18.1285859469
 20
13.0428423071
 30
0.0
 10
18.132650878
 20
13.0428419741
 30
0.0
  0
SPLINE
  5
385
100
AcDbEntity
  8
0
100
AcDbSpline
 62
7
  6
BYLAYER
 70
0
 71
3
 72
27
 73
23
 74
0
 42
0.0000001
 43
0.0000001
 44
0.0000000001
 40
0.0
 40
0.0
 40
0.0
 40
0.0
 40
0.0673799367
 40
0.1393925625
 40
0.2149169197
 40
0.2927566437
 40
0.3716262347
 40
0.4502182411
 40
0.5272305485
 40
0.6014076053
 40
0.6715801875
 40
0.7367097767
 40
0.7959420652
 40
0.8486788797
 40
0.8725360427
 40
0.8947234908
 40
0.9152965965
 40
0.9343652929
 40
0.9520959698
 40
0.9687275075
 40
0.9845705757
 40
1.0
 40
1.0
 40
1.0
 40
1.0
 10
17.9631785951
 20
12.832626332
 30
0.0
 10
17.956644462
 20
12.8114818697
 30
0.0
 10
17.9449528497
 20
12.7671631654
 30
0.0
 10
17.9316767903
 20
12.6977869783
 30
0.0
 10
17.9222650528
 20
12.6243177677
 30
0.0
 10
17.916901559
 20
12.548189872
 30
0.0
 10
17.9156961669
 20
12.4708761026
 30
0.0
 10
17.9186714378
 20
12.3938818962
 30
0.0
 10
17.9257688906
 20
12.3187034901
 30
0.0
 10
17.9368468421
 20
12.2467995886
 30
0.0
 10
17.9516845989
 20
12.1795610408
 30
0.0
 10
17.9699897472
 20
12.1182724604
 30
0.0
 10
17.9914055807
 20
12.0641054534
 30
0.0
 10
18.0121581975
 20
12.0244710873
 30
0.0
 10
18.0301919373
 20
11.9974658302
 30
0.0
 10
18.0437723404
 20
11.9802749623
 30
0.0
 10
18.0578059542
 20
11.9655497771
 30
0.0
 10
18.0722309935
 20
11.9533587172
 30
0.0
 10
18.0869948883
 20
11.9437735165
 30
0.0
 10
18.1020370889
 20
11.9368569759
 30
0.0
 10
18.1172795884
 20
11.9326707595
 30
0.0
 10
18.127573901
 20
11.9317333626
 30
0.0
 10
18.1326417196
 20
11.9317329474
 30
0.0
  0
SPLINE
  5
386
100
AcDbEntity
  8
02___PRT_ALL_AXES
100
AcDbSpline
 62
7
  6
BYLAYER
 70
0
 71
3
 72
17
 73
13
 74
0
 42
0.0000001
 43
0.0000001
 44
0.0000000001
 40
0.0
 40
0.0
 40
0.0
 40
0.0
 40
0.0328478074
 40
0.0676279268
 40
0.1059114104
 40
0.148752321
 40
0.2498936423
 40
0.3721854089
 40
0.5131913382
 40
0.6685235917
 40
0.8329156281
 40
1.0
 40
1.0
 40
1.0
 40
1.0
 10
18.2872460819
 20
13.0062817947
 30
0.0
 10
18.2865727856
 20
13.0062810748
 30
0.0
 10
18.2851806381
 20
13.0060849326
 30
0.0
 10
18.2831618419
 20
13.0052347255
 30
0.0
 10
18.2812111497
 20
13.0038517718
 30
0.0
 10
18.2785756198
 20
13.0011834728
 30
0.0
 10
18.275618246
 20
12.9965331625
 30
0.0
 10
18.2727512833
 20
12.9896129879
 30
0.0
 10
18.2704913387
 20
12.9813147947
 30
0.0
 10
18.268936618
 20
12.9719865522
 30
0.0
 10
18.2681614682
 20
12.9620271125
 30
0.0
 10
18.2681846873
 20
12.9552238812
 30
0.0
 10
18.2683380484
 20
12.9518025109
 30
0.0
  0
SPLINE
  5
387
100
AcDbEntity
  8
02___PRT_ALL_AXES
100
AcDbSpline
 62
7
  6
BYLAYER
 70
0
 71
3
 72
13
 73
9
 74
0
 42
0.0000001
 43
0.0000001
 44
0.0000000001
 40
0.0
 40
0.0
 40
0.0
 40
0.0
 40
0.0859159704
 40
0.1775515467
 40
0.2793768109
 40
0.3943308344
 40
0.6682047645
 40
1.0
 40
1.0
 40
1.0
 40
1.0
 10
18.4013984175
 20
12.7736881306
 30
0.0
 10
18.4006783434
 20
12.7736890538
 30
0.0
 10
18.3991825287
 20
12.7734655195
 30
0.0
 10
18.3970273251
 20
12.7724923424
 30
0.0
 10
18.3949540202
 20
12.7709194261
 30
0.0
 10
18.3921616734
 20
12.7678781735
 30
0.0
 10
18.3890840126
 20
12.7626144197
 30
0.0
 10
18.3872996381
 20
12.7578460735
 30
0.0
 10
18.3864786065
 20
12.7551892143
 30
0.0
  0
SPLINE
  5
388
100
AcDbEntity
  8
02___PRT_ALL_AXES
100
AcDbSpline
 62
7
  6
BYLAYER
 70
0
 71
3
 72
19
 73
15
 74
0
 42
0.0000001
 43
0.0000001
 44
0.0000000001
 40
0.0
 40
0.0
 40
0.0
 40
0.0
 40
0.0313852112
 40
0.0665255793
 40
0.1078722031
 40
0.1565166979
 40
0.2125481958
 40
0.2754804481
 40
0.4179574941
 40
0.5738524124
 40
0.7308416845
 40
0.8764220623
 40
0.9415674586
 40
1.0
 40
1.0
 40
1.0
 40
1.0
 10
18.3274728258
 20
12.1088575663
 30
0.0
 10
18.3264776473
 20
12.1088564913
 30
0.0
 10
18.3243529526
 20
12.1084065208
 30
0.0
 10
18.3214311988
 20
12.1065314942
 30
0.0
 10
18.3187190757
 20
12.1035948518
 30
0.0
 10
18.316238403
 20
12.0996636632
 30
0.0
 10
18.3140197112
 20
12.0948210793
 30
0.0
 10
18.3113721102
 20
12.0869531486
 30
0.0
 10
18.309145896
 20
12.0756672394
 30
0.0
 10
18.3081560536
 20
12.061230524
 30
0.0
 10
18.3088596184
 20
12.0466790066
 30
0.0
 10
18.3108537967
 20
12.0351458115
 30
0.0
 10
18.3133320308
 20
12.0269695419
 30
0.0
 10
18.3148273167
 20
12.0233370925
 30
0.0
 10
18.3156435588
 20
12.021673766
 30
0.0
  0
SPLINE
  5
389
100
AcDbEntity
  8
02___PRT_ALL_AXES
100
AcDbSpline
 62
7
  6
BYLAYER
 70
0
 71
3
 72
17
 73
13
 74
0
 42
0.0000001
 43
0.0000001
 44
0.0000000001
 40
0.0
 40
0.0
 40
0.0
 40
0.0
 40
0.0328478074
 40
0.0676279268
 40
0.1059114104
 40
0.148752321
 40
0.2498936423
 40
0.3721854089
 40
0.5131913382
 40
0.6685235917
 40
0.8329156281
 40
1.0
 40
1.0
 40
1.0
 40
1.0
 10
18.1827161099
 20
12.0660706935
 30
0.0
 10
18.1820428136
 20
12.0660699736
 30
0.0
 10
18.1806506662
 20
12.0658738314
 30
0.0
 10
18.1786318699
 20
12.0650236243
 30
0.0
 10
18.1766811777
 20
12.0636406706
 30
0.0
 10
18.1740456478
 20
12.0609723716
 30
0.0
 10
18.171088274
 20
12.0563220613
 30
0.0
 10
18.1682213114
 20
12.0494018867
 30
0.0
 10
18.1659613667
 20
12.0411036935
 30
0.0
 10
18.164406646
 20
12.031775451
 30
0.0
 10
18.1636314963
 20
12.0218160113
 30
0.0
 10
18.1636547153
 20
12.01501278
 30
0.0
 10
18.1638080764
 20
12.0115914097
 30
0.0
  0
SPLINE
  5
38A
100
AcDbEntity
  8
02___PRT_ALL_AXES
100
AcDbSpline
 62
7
  6
BYLAYER
 70
0
 71
3
 72
13
 73
9
 74
0
 42
0.0000001
 43
0.0000001
 44
0.0000000001
 40
0.0
 40
0.0
 40
0.0
 40
0.0
 40
0.0859159704
 40
0.1775515467
 40
0.2793768109
 40
0.3943308344
 40
0.6682047645
 40
1.0
 40
1.0
 40
1.0
 40
1.0
 10
18.068587707
 20
12.2986642648
 30
0.0
 10
18.0678676329
 20
12.2986651879
 30
0.0
 10
18.0663718182
 20
12.2984416536
 30
0.0
 10
18.0642166146
 20
12.2974684765
 30
0.0
 10
18.0621433098
 20
12.2958955602
 30
0.0
 10
18.0593509629
 20
12.2928543076
 30
0.0
 10
18.0562733021
 20
12.2875905538
 30
0.0
 10
18.0544889276
 20
12.2828222076
 30
0.0
 10
18.0536678961
 20
12.2801653485
 30
0.0
  0
SPLINE
  5
38B
100
AcDbEntity
  8
02___PRT_ALL_AXES
100
AcDbSpline
 62
7
  6
BYLAYER
 70
0
 71
3
 72
19
 73
15
 74
0
 42
0.0000001
 43
0.0000001
 44
0.0000000001
 40
0.0
 40
0.0
 40
0.0
 40
0.0
 40
0.0313852112
 40
0.0665255793
 40
0.1078722031
 40
0.1565166979
 40
0.2125481958
 40
0.2754804481
 40
0.4179574941
 40
0.5738524124
 40
0.7308416845
 40
0.8764220623
 40
0.9415674586
 40
1.0
 40
1.0
 40
1.0
 40
1.0
 10
18.1424898194
 20
12.9634929913
 30
0.0
 10
18.1414946409
 20
12.9634919162
 30
0.0
 10
18.1393699462
 20
12.9630419457
 30
0.0
 10
18.1364481924
 20
12.9611669191
 30
0.0
 10
18.1337360693
 20
12.9582302767
 30
0.0
 10
18.1312553966
 20
12.9542990882
 30
0.0
 10
18.1290367048
 20
12.9494565043
 30
0.0
 10
18.1263891038
 20
12.9415885735
 30
0.0
 10
18.1241628896
 20
12.9303026643
 30
0.0
 10
18.1231730472
 20
12.915865949
 30
0.0
 10
18.123876612
 20
12.9013144316
 30
0.0
 10
18.1258707903
 20
12.8897812365
 30
0.0
 10
18.1283490244
 20
12.8816049668
 30
0.0
 10
18.1298443103
 20
12.8779725174
 30
0.0
 10
18.1306605524
 20
12.8763091909
 30
0.0
  0
SPLINE
  5
38C
100
AcDbEntity
  8
0
100
AcDbSpline
 62
7
  6
BYLAYER
 70
0
 71
3
 72
27
 73
23
 74
0
 42
0.0000001
 43
0.0000001
 44
0.0000000001
 40
0.0
 40
0.0
 40
0.0
 40
0.0
 40
0.0154294243
 40
0.0312724925
 40
0.0479040302
 40
0.0656347071
 40
0.0847034035
 40
0.1052765092
 40
0.1274639573
 40
0.1513211203
 40
0.2040579348
 40
0.2632902233
 40
0.3284198125
 40
0.3985923947
 40
0.4727694515
 40
0.5497817589
 40
0.6283737653
 40
0.7072433563
 40
0.7850830803
 40
0.8606074375
 40
0.9326200633
 40
1.0
 40
1.0
 40
1.0
 40
1.0
 10
18.2349909884
 20
13.0428419741
 30
0.0
 10
18.2400588069
 20
13.0428415589
 30
0.0
 10
18.2503531196
 20
13.0419041619
 30
0.0
 10
18.265595619
 20
13.0377179456
 30
0.0
 10
18.2806378197
 20
13.030801405
 30
0.0
 10
18.2954017145
 20
13.0212162043
 30
0.0
 10
18.3098267538
 20
13.0090251443
 30
0.0
 10
18.3238603676
 20
12.9942999592
 30
0.0
 10
18.3374407707
 20
12.9771090912
 30
0.0
 10
18.3554745105
 20
12.9501038341
 30
0.0
 10
18.3762271273
 20
12.9104694681
 30
0.0
 10
18.3976429608
 20
12.8563024611
 30
0.0
 10
18.4159481091
 20
12.7950138806
 30
0.0
 10
18.4307858659
 20
12.7277753328
 30
0.0
 10
18.4418638174
 20
12.6558714314
 30
0.0
 10
18.4489612702
 20
12.5806930253
 30
0.0
 10
18.4519365411
 20
12.5036988188
 30
0.0
 10
18.4507311489
 20
12.4263850495
 30
0.0
 10
18.4453676552
 20
12.3502571537
 30
0.0
 10
18.4359559177
 20
12.2767879431
 30
0.0
 10
18.4226798582
 20
12.2074117561
 30
0.0
 10
18.4109882459
 20
12.1630930517
 30
0.0
 10
18.4044541129
 20
12.1419485895
 30
0.0
  0
SPLINE
  5
38D
100
AcDbEntity
  8
0
100
AcDbSpline
 62
7
  6
BYLAYER
 70
0
 71
3
 72
16
 73
12
 74
0
 42
0.0000001
 43
0.0000001
 44
0.0000000001
 40
0.0
 40
0.0
 40
0.0
 40
0.0
 40
0.0426527752
 40
0.0860489092
 40
0.1775990003
 40
0.279378807
 40
0.39427228
 40
0.523736175
 40
0.6681670171
 40
0.8272722212
 40
1.0
 40
1.0
 40
1.0
 40
1.0
 10
18.23498183
 20
11.9317329474
 30
0.0
 10
18.2390467611
 20
11.9317326143
 30
0.0
 10
18.2472600081
 20
11.9323298622
 30
0.0
 10
18.2638418091
 20
11.9359599489
 30
0.0
 10
18.2846530038
 20
11.945337392
 30
0.0
 10
18.3081736084
 20
11.9632431766
 30
0.0
 10
18.3305928768
 20
11.9876247032
 30
0.0
 10
18.3517242436
 20
12.0181721254
 30
0.0
 10
18.371372884
 20
12.054536441
 30
0.0
 10
18.3893093884
 20
12.096284145
 30
0.0
 10
18.3995939131
 20
12.1262209773
 30
0.0
 10
18.4044541129
 20
12.1419485895
 30
0.0
  0
SPLINE
  5
38E
100
AcDbEntity
  8
0
100
AcDbSpline
 62
7
  6
BYLAYER
 70
0
 71
3
 72
13
 73
9
 74
0
 42
0.0000001
 43
0.0000001
 44
0.0000000001
 40
0.0
 40
0.0
 40
0.0
 40
0.0
 40
0.2122188931
 40
0.3266457718
 40
0.4474389923
 40
0.5750232149
 40
0.7096499646
 40
1.0
 40
1.0
 40
1.0
 40
1.0
 10
18.0138979218
 20
11.7044759087
 30
0.0
 10
18.0302104207
 20
11.7154656653
 30
0.0
 10
18.0531477526
 20
11.7357133456
 30
0.0
 10
18.0801241889
 20
11.767228984
 30
0.0
 10
18.0998460978
 20
11.7945149456
 30
0.0
 10
18.1185259931
 20
11.8247301789
 30
0.0
 10
18.1426696371
 20
11.869923971
 30
0.0
 10
18.1582321526
 20
11.9062052561
 30
0.0
 10
18.1677816735
 20
11.9313643781
 30
0.0
  0
SPLINE
  5
38F
100
AcDbEntity
  8
0
100
AcDbSpline
 62
7
  6
BYLAYER
 70
0
 71
3
 72
24
 73
20
 74
0
 42
0.0000001
 43
0.0000001
 44
0.0000000001
 40
0.0
 40
0.0
 40
0.0
 40
0.0
 40
0.0154323948
 40
0.0312783084
 40
0.0655589438
 40
0.1051518584
 40
0.1511690561
 40
0.2039161789
 40
0.2631601593
 40
0.3283028828
 40
0.3984889488
 40
0.4726792946
 40
0.5497049292
 40
0.6283104566
 40
0.707193763
 40
0.7850469311
 40
0.8605824112
 40
0.9326108318
 40
1.0
 40
1.0
 40
1.0
 40
1.0
 10
18.2349776975
 20
12.2095098656
 30
0.0
 10
18.2324438028
 20
12.2095106486
 30
0.0
 10
18.2272968529
 20
12.2099818018
 30
0.0
 10
18.2168695056
 20
12.2128422224
 30
0.0
 10
18.2038785474
 20
12.2202741431
 30
0.0
 10
18.1896600928
 20
12.2340834822
 30
0.0
 10
18.1764281263
 20
12.2526643709
 30
0.0
 10
18.1643634692
 20
12.2757004154
 30
0.0
 10
18.1536550023
 20
12.3027883399
 30
0.0
 10
18.1445036369
 20
12.3334315522
 30
0.0
 10
18.1370854838
 20
12.3670511176
 30
0.0
 10
18.1315471384
 20
12.403002412
 30
0.0
 10
18.1279986939
 20
12.4405907754
 30
0.0
 10
18.126511126
 20
12.4790869001
 30
0.0
 10
18.1271141253
 20
12.5177428105
 30
0.0
 10
18.129796245
 20
12.5558054453
 30
0.0
 10
18.1345019118
 20
12.5925393647
 30
0.0
 10
18.1411402032
 20
12.6272263266
 30
0.0
 10
18.1469856909
 20
12.6493853125
 30
0.0
 10
18.1502525574
 20
12.6599568964
 30
0.0
  0
SPLINE
  5
390
100
AcDbEntity
  8
0
100
AcDbSpline
 62
7
  6
BYLAYER
 70
0
 71
3
 72
11
 73
7
 74
0
 42
0.0000001
 43
0.0000001
 44
0.0000000001
 40
0.0
 40
0.0
 40
0.0
 40
0.0
 40
0.2204325285
 40
0.4637320733
 40
0.7253878526
 40
1.0
 40
1.0
 40
1.0
 40
1.0
 10
17.3100957914
 20
11.8601311583
 30
0.0
 10
17.2987046107
 20
11.8869137709
 30
0.0
 10
17.2781596868
 20
11.9447323391
 30
0.0
 10
17.2544497479
 20
12.0376290465
 30
0.0
 10
17.2367684656
 20
12.1391197244
 30
0.0
 10
17.2294424757
 20
12.2096053437
 30
0.0
 10
17.2268354796
 20
12.2457694309
 30
0.0
  0
SPLINE
  5
391
100
AcDbEntity
  8
0
100
AcDbSpline
 62
7
  6
BYLAYER
 70
0
 71
3
 72
23
 73
19
 74
0
 42
0.0000001
 43
0.0000001
 44
0.0000000001
 40
0.0
 40
0.0
 40
0.0
 40
0.0
 40
0.0637580559
 40
0.1258285225
 40
0.1869367628
 40
0.2478903669
 40
0.3094222479
 40
0.3719834642
 40
0.4355991203
 40
0.4999220411
 40
0.5643939725
 40
0.628409992
 40
0.6914995354
 40
0.7534977924
 40
0.8146665553
 40
0.8755983013
 40
0.9371203353
 40
1.0
 40
1.0
 40
1.0
 40
1.0
 10
18.1330688759
 20
11.8519781758
 30
0.0
 10
18.1237836901
 20
11.8311579747
 30
0.0
 10
18.1039559416
 20
11.790710027
 30
0.0
 10
18.0693722493
 20
11.7334031002
 30
0.0
 10
18.0297511029
 20
11.6806563183
 30
0.0
 10
17.98419637
 20
11.6331386339
 30
0.0
 10
17.9320293544
 20
11.5920437528
 30
0.0
 10
17.8731088673
 20
11.559246023
 30
0.0
 10
17.8083404203
 20
11.5369547874
 30
0.0
 10
17.7398232318
 20
11.5270918304
 30
0.0
 10
17.6705378512
 20
11.5306242238
 30
0.0
 10
17.6036536043
 20
11.5471973477
 30
0.0
 10
17.541760265
 20
11.5752773415
 30
0.0
 10
17.4863284069
 20
11.612690062
 30
0.0
 10
17.4376882052
 20
11.657354828
 30
0.0
 10
17.3953506545
 20
11.707737415
 30
0.0
 10
17.3584655569
 20
11.7629206689
 30
0.0
 10
17.3372939135
 20
11.802111738
 30
0.0
 10
17.3273892979
 20
11.8222952225
 30
0.0
  0
SPLINE
  5
392
100
AcDbEntity
  8
0
100
AcDbSpline
 62
7
  6
BYLAYER
 70
0
 71
3
 72
10
 73
6
 74
0
 42
0.0000001
 43
0.0000001
 44
0.0000000001
 40
0.0
 40
0.0
 40
0.0
 40
0.0
 40
0.2364041639
 40
0.4821039878
 40
1.0
 40
1.0
 40
1.0
 40
1.0
 10
18.0512587256
 20
13.3793468366
 30
0.0
 10
18.0634696977
 20
13.3544634917
 30
0.0
 10
18.0868235016
 20
13.3029459139
 30
0.0
 10
18.1294726474
 20
13.1936897084
 30
0.0
 10
18.1558751829
 20
13.1079754721
 30
0.0
 10
18.1715003056
 20
13.0492977256
 30
0.0
  0
SPLINE
  5
393
100
AcDbEntity
  8
0
100
AcDbSpline
 62
7
  6
BYLAYER
 70
0
 71
3
 72
46
 73
42
 74
0
 42
0.0000001
 43
0.0000001
 44
0.0000000001
 40
0.0
 40
0.0
 40
0.0
 40
0.0
 40
0.0658843087
 40
0.1324174631
 40
0.1987811263
 40
0.2641361812
 40
0.2961635676
 40
0.3276080483
 40
0.358353676
 40
0.3882797413
 40
0.4172584721
 40
0.44515166
 40
0.4586454222
 40
0.4718104136
 40
0.4846269342
 40
0.4970788334
 40
0.5091620634
 40
0.5209125995
 40
0.5324956592
 40
0.5383946086
 40
0.5445316583
 40
0.5511067807
 40
0.5582865161
 40
0.566045282
 40
0.5741895584
 40
0.5824927568
 40
0.5908209445
 40
0.6073573664
 40
0.6237003902
 40
0.6398924614
 40
0.6559900234
 40
0.6720388731
 40
0.7041113075
 40
0.7362908692
 40
0.7686599493
 40
0.8012487737
 40
0.8340545719
 40
0.867052906
 40
0.9002027757
 40
0.9334528403
 40
1.0
 40
1.0
 40
1.0
 40
1.0
 10
17.6070375804
 20
12.2786181312
 30
0.0
 10
17.601900751
 20
12.3076532883
 30
0.0
 10
17.5924393863
 20
12.3661645498
 30
0.0
 10
17.5804185591
 20
12.4543186795
 30
0.0
 10
17.5702095751
 20
12.5424604507
 30
0.0
 10
17.5628659595
 20
12.6153764874
 30
0.0
 10
17.5574126748
 20
12.6727735385
 30
0.0
 10
17.5534692715
 20
12.7147551291
 30
0.0
 10
17.5495168967
 20
12.755791225
 30
0.0
 10
17.5453854192
 20
12.7957011851
 30
0.0
 10
17.5408388993
 20
12.8342815184
 30
0.0
 10
17.536377559
 20
12.8654627002
 30
0.0
 10
17.5321237101
 20
12.8895061828
 30
0.0
 10
17.5285333024
 20
12.9068077722
 30
0.0
 10
17.5243708921
 20
12.9235034974
 30
0.0
 10
17.5194424938
 20
12.9394882673
 30
0.0
 10
17.5134477889
 20
12.9546082803
 30
0.0
 10
17.5059169851
 20
12.9686050301
 30
0.0
 10
17.497612735
 20
12.9788995735
 30
0.0
 10
17.4892695721
 20
12.9854717366
 30
0.0
 10
17.4818105198
 20
12.9893117955
 30
0.0
 10
17.4731163723
 20
12.9915690273
 30
0.0
 10
17.4634083828
 20
12.9917687602
 30
0.0
 10
17.4531964538
 20
12.9898533462
 30
0.0
 10
17.4429851946
 20
12.9861235669
 30
0.0
 10
17.4331158481
 20
12.9810207327
 30
0.0
 10
17.4206306698
 20
12.9729608919
 30
0.0
 10
17.4063189744
 20
12.9612433118
 30
0.0
 10
17.3907942037
 20
12.9456773976
 30
0.0
 10
17.3766251955
 20
12.9291332174
 30
0.0
 10
17.3635673467
 20
12.9118714039
 30
0.0
 10
17.3474114821
 20
12.8880896183
 30
0.0
 10
17.3291916549
 20
12.8570644323
 30
0.0
 10
17.3099542121
 20
12.8183062281
 30
0.0
 10
17.2929805112
 20
12.778258548
 30
0.0
 10
17.2780448342
 20
12.7371141895
 30
0.0
 10
17.2649970042
 20
12.6950406885
 30
0.0
 10
17.25373206
 20
12.6521979905
 30
0.0
 10
17.2441706812
 20
12.60874022
 30
0.0
 10
17.2336098177
 20
12.5501753581
 30
0.0
 10
17.2280734777
 20
12.5058080594
 30
0.0
 10
17.2253757405
 20
12.4761477845
 30
0.0
  0
SPLINE
  5
394
100
AcDbEntity
  8
02___PRT_ALL_AXES
100
AcDbSpline
 62
7
  6
BYLAYER
 70
0
 71
3
 72
18
 73
14
 74
0
 42
0.0000001
 43
0.0000001
 44
0.0000000001
 40
0.0
 40
0.0
 40
0.0
 40
0.0
 40
0.1393852211
 40
0.2927819298
 40
0.4502785
 40
0.60149873
 40
0.736802521
 40
0.7960744217
 40
0.8488586442
 40
0.894900179
 40
0.9345235345
 40
0.9688231352
 40
1.0
 40
1.0
 40
1.0
 40
1.0
 10
18.4163049224
 20
12.694409573
 30
0.0
 10
18.4174935129
 20
12.6982558534
 30
0.0
 10
18.4193102576
 20
12.7065484902
 30
0.0
 10
18.4205597233
 20
12.7195164895
 30
0.0
 10
18.4204108314
 20
12.73288991
 30
0.0
 10
18.4188739476
 20
12.7456460891
 30
0.0
 10
18.4164519646
 20
12.7553782875
 30
0.0
 10
18.4138238173
 20
12.7620324946
 30
0.0
 10
18.4117013339
 20
12.7660877391
 30
0.0
 10
18.4093731647
 20
12.769358211
 30
0.0
 10
18.406869008
 20
12.7717901981
 30
0.0
 10
18.404202037
 20
12.7733230246
 30
0.0
 10
18.4022988716
 20
12.7736869762
 30
0.0
 10
18.4013984175
 20
12.7736881306
 30
0.0
  0
SPLINE
  5
395
100
AcDbEntity
  8
0
100
AcDbSpline
 62
7
  6
BYLAYER
 70
0
 71
3
 72
19
 73
15
 74
0
 42
0.0000001
 43
0.0000001
 44
0.0000000001
 40
0.0
 40
0.0
 40
0.0
 40
0.0
 40
0.0507462123
 40
0.1026303083
 40
0.1566098205
 40
0.2133407452
 40
0.3356277874
 40
0.4012099063
 40
0.46901089
 40
0.6081793836
 40
0.7469386969
 40
0.8142573344
 40
0.8792050208
 40
1.0
 40
1.0
 40
1.0
 40
1.0
 10
17.8399039736
 20
13.7469890121
 30
0.0
 10
17.8361525373
 20
13.7546321591
 30
0.0
 10
17.8268093879
 20
13.7692921203
 30
0.0
 10
17.8081078024
 20
13.7880117268
 30
0.0
 10
17.7851851511
 20
13.8031262667
 30
0.0
 10
17.7489884821
 20
13.8183589154
 30
0.0
 10
17.7076440885
 20
13.8243993626
 30
0.0
 10
17.6647437945
 20
13.8221183197
 30
0.0
 10
17.6196304254
 20
13.8139675137
 30
0.0
 10
17.5647855184
 20
13.7934780009
 30
0.0
 10
17.5159553167
 20
13.7613110459
 30
0.0
 10
17.4830249909
 20
13.7297767514
 30
0.0
 10
17.4563078775
 20
13.696707544
 30
0.0
 10
17.4417148647
 20
13.6684473314
 30
0.0
 10
17.4357311173
 20
13.6490839178
 30
0.0
  0
SPLINE
  5
396
100
AcDbEntity
  8
0
100
AcDbSpline
 62
7
  6
BYLAYER
 70
0
 71
3
 72
13
 73
9
 74
0
 42
0.0000001
 43
0.0000001
 44
0.0000000001
 40
0.0
 40
0.0
 40
0.0
 40
0.0
 40
0.117823834
 40
0.2364399154
 40
0.3566033737
 40
0.4789921842
 40
0.7323264086
 40
1.0
 40
1.0
 40
1.0
 40
1.0
 10
17.1915549247
 20
13.4287937297
 30
0.0
 10
17.1961103572
 20
13.4195135728
 30
0.0
 10
17.206375061
 20
13.4014188594
 30
0.0
 10
17.2249646384
 20
13.3761664271
 30
0.0
 10
17.2466353373
 20
13.3529470202
 30
0.0
 10
17.2797626755
 20
13.3246171045
 30
0.0
 10
17.3284445965
 20
13.2951970962
 30
0.0
 10
17.3716788559
 20
13.2794814438
 30
0.0
 10
17.3943465775
 20
13.273336429
 30
0.0
  0
SPLINE
  5
397
100
AcDbEntity
  8
0
100
AcDbSpline
 62
7
  6
BYLAYER
 70
0
 71
3
 72
9
 73
5
 74
0
 42
0.0000001
 43
0.0000001
 44
0.0000000001
 40
0.0
 40
0.0
 40
0.0
 40
0.0
 40
0.2421408115
 40
1.0
 40
1.0
 40
1.0
 40
1.0
 10
17.3943465775
 20
13.273336429
 30
0.0
 10
17.4039789511
 20
13.2707251794
 30
0.0
 10
17.4441398842
 20
13.2613652554
 30
0.0
 10
17.4855300864
 20
13.2575784723
 30
0.0
 10
17.5167655384
 20
13.2574268022
 30
0.0
  0
SPLINE
  5
398
100
AcDbEntity
  8
02___PRT_ALL_AXES
100
AcDbSpline
 62
7
  6
BYLAYER
 70
0
 71
3
 72
15
 73
11
 74
0
 42
0.0000001
 43
0.0000001
 44
0.0000000001
 40
0.0
 40
0.0
 40
0.0
 40
0.0
 40
0.1734563934
 40
0.3392725583
 40
0.4926163165
 40
0.6299720811
 40
0.7487638761
 40
0.8480145523
 40
0.9296139082
 40
1.0
 40
1.0
 40
1.0
 40
1.0
 10
18.306164742
 20
12.9629835118
 30
0.0
 10
18.3060345246
 20
12.9658885633
 30
0.0
 10
18.3055789823
 20
12.9715640696
 30
0.0
 10
18.3043023212
 20
12.9797317983
 30
0.0
 10
18.3024789717
 20
12.9871761777
 30
0.0
 10
18.3001710287
 20
12.9936569998
 30
0.0
 10
18.2974528821
 20
12.9989843338
 30
0.0
 10
18.2943847283
 20
13.0030083523
 30
0.0
 10
18.290992869
 20
13.0056255373
 30
0.0
 10
18.2884260928
 20
13.0062830562
 30
0.0
 10
18.2872460819
 20
13.0062817947
 30
0.0
  0
SPLINE
  5
399
100
AcDbEntity
  8
0
100
AcDbSpline
 62
7
  6
BYLAYER
 70
0
 71
3
 72
18
 73
14
 74
0
 42
0.0000001
 43
0.0000001
 44
0.0000000001
 40
0.0
 40
0.0
 40
0.0
 40
0.0
 40
0.0516661794
 40
0.1054491294
 40
0.1617946011
 40
0.2208946464
 40
0.3467249042
 40
0.480616812
 40
0.6179317831
 40
0.7532647628
 40
0.8186940707
 40
0.8818699936
 40
1.0
 40
1.0
 40
1.0
 40
1.0
 10
17.8355499687
 20
13.7426299949
 30
0.0
 10
17.8299606866
 20
13.7484001345
 30
0.0
 10
17.8173778522
 20
13.7590863431
 30
0.0
 10
17.7955052108
 20
13.7717464162
 30
0.0
 10
17.7707901453
 20
13.7810904379
 30
0.0
 10
17.7340131294
 20
13.7890511522
 30
0.0
 10
17.6838715803
 20
13.7894564024
 30
0.0
 10
17.6231775304
 20
13.775879698
 30
0.0
 10
17.5652784167
 20
13.7494384951
 30
0.0
 10
17.5226016251
 20
13.7180063434
 30
0.0
 10
17.4940495773
 20
13.6883984569
 30
0.0
 10
17.470845015
 20
13.6577914774
 30
0.0
 10
17.4581008449
 20
13.6320987269
 30
0.0
 10
17.4526778877
 20
13.6145500307
 30
0.0
  0
SPLINE
  5
39A
100
AcDbEntity
  8
0
100
AcDbSpline
 62
7
  6
BYLAYER
 70
0
 71
3
 72
14
 73
10
 74
0
 42
0.0000001
 43
0.0000001
 44
0.0000000001
 40
0.0
 40
0.0
 40
0.0
 40
0.0
 40
0.1118030173
 40
0.2252877949
 40
0.3419561606
 40
0.4629904388
 40
0.5891767907
 40
0.7208863497
 40
1.0
 40
1.0
 40
1.0
 40
1.0
 10
18.0892677516
 20
13.8693741059
 30
0.0
 10
18.0961359419
 20
13.8553824851
 30
0.0
 10
18.1074477969
 20
13.8258692387
 30
0.0
 10
18.1164081877
 20
13.7788129711
 30
0.0
 10
18.117311172
 20
13.7296375061
 30
0.0
 10
18.1101830589
 20
13.6792147771
 30
0.0
 10
18.0951853398
 20
13.6283734083
 30
0.0
 10
18.064527283
 20
13.5598943959
 30
0.0
 10
18.0314069994
 20
13.5123460513
 30
0.0
 10
18.0060311582
 20
13.4828477537
 30
0.0
  0
SPLINE
  5
39B
100
AcDbEntity
  8
0
100
AcDbSpline
 62
7
  6
BYLAYER
 70
0
 71
3
 72
9
 73
5
 74
0
 42
0.0000001
 43
0.0000001
 44
0.0000000001
 40
0.0
 40
0.0
 40
0.0
 40
0.0
 40
0.495777694
 40
1.0
 40
1.0
 40
1.0
 40
1.0
 10
17.9568684428
 20
13.43220335
 30
0.0
 10
17.928329779
 20
13.4060447198
 30
0.0
 10
17.8657760553
 20
13.3585408249
 30
0.0
 10
17.7960828453
 20
13.3224007803
 30
0.0
 10
17.7597168365
 20
13.3073099425
 30
0.0
  0
SPLINE
  5
39C
100
AcDbEntity
  8
0
100
AcDbSpline
 62
7
  6
BYLAYER
 70
0
 71
3
 72
9
 73
5
 74
0
 42
0.0000001
 43
0.0000001
 44
0.0000000001
 40
0.0
 40
0.0
 40
0.0
 40
0.0
 40
0.5101611584
 40
1.0
 40
1.0
 40
1.0
 40
1.0
 10
17.7597168365
 20
13.3073099425
 30
0.0
 10
17.7209787444
 20
13.2912347591
 30
0.0
 10
17.6420097792
 20
13.2665538218
 30
0.0
 10
17.5596484966
 20
13.257420463
 30
0.0
 10
17.5193781765
 20
13.257420463
 30
0.0
  0
SPLINE
  5
39D
100
AcDbEntity
  8
0
100
AcDbSpline
 62
7
  6
BYLAYER
 70
0
 71
3
 72
21
 73
17
 74
0
 42
0.0000001
 43
0.0000001
 44
0.0000000001
 40
0.0
 40
0.0
 40
0.0
 40
0.0
 40
0.0495888026
 40
0.1038065107
 40
0.16222508
 40
0.2243378031
 40
0.2895284024
 40
0.3571161443
 40
0.4964942402
 40
0.6363614815
 40
0.704551221
 40
0.770567765
 40
0.833712951
 40
0.8933467882
 40
0.9489322068
 40
1.0
 40
1.0
 40
1.0
 40
1.0
 10
17.7755957813
 20
12.8572903159
 30
0.0
 10
17.7680043768
 20
12.842930062
 30
0.0
 10
17.7536592911
 20
12.8120404665
 30
0.0
 10
17.7352260086
 20
12.7621547386
 30
0.0
 10
17.7191166109
 20
12.7071850888
 30
0.0
 10
17.7055410592
 20
12.6478510766
 30
0.0
 10
17.6946792674
 20
12.5849134469
 30
0.0
 10
17.6839034156
 20
12.4963889281
 30
0.0
 10
17.6781361478
 20
12.3827616987
 30
0.0
 10
17.682340069
 20
12.2688715398
 30
0.0
 10
17.6918623858
 20
12.1795729048
 30
0.0
 10
17.7018437068
 20
12.1156748547
 30
0.0
 10
17.7145878991
 20
12.0551290137
 30
0.0
 10
17.7299255087
 20
11.9987133728
 30
0.0
 10
17.7476563926
 20
11.9471676558
 30
0.0
 10
17.7615345935
 20
11.9150523409
 30
0.0
 10
17.7689039065
 20
11.90003526
 30
0.0
  0
SPLINE
  5
39E
100
AcDbEntity
  8
0
100
AcDbSpline
 62
7
  6
BYLAYER
 70
0
 71
3
 72
27
 73
23
 74
0
 42
0.0000001
 43
0.0000001
 44
0.0000000001
 40
0.0
 40
0.0
 40
0.0
 40
0.0
 40
0.0673799367
 40
0.1393925625
 40
0.2149169197
 40
0.2927566437
 40
0.3716262347
 40
0.4502182411
 40
0.5272305485
 40
0.6014076053
 40
0.6715801875
 40
0.7367097767
 40
0.7959420652
 40
0.8486788797
 40
0.8725360427
 40
0.8947234908
 40
0.9152965965
 40
0.9343652929
 40
0.9520959698
 40
0.9687275075
 40
0.9845705757
 40
1.0
 40
1.0
 40
1.0
 40
1.0
 10
18.0655187055
 20
12.832626332
 30
0.0
 10
18.0589845725
 20
12.8114818697
 30
0.0
 10
18.0472929602
 20
12.7671631654
 30
0.0
 10
18.0340169007
 20
12.6977869783
 30
0.0
 10
18.0246051632
 20
12.6243177677
 30
0.0
 10
18.0192416695
 20
12.548189872
 30
0.0
 10
18.0180362773
 20
12.4708761026
 30
0.0
 10
18.0210115482
 20
12.3938818962
 30
0.0
 10
18.028109001
 20
12.3187034901
 30
0.0
 10
18.0391869525
 20
12.2467995886
 30
0.0
 10
18.0540247093
 20
12.1795610408
 30
0.0
 10
18.0723298576
 20
12.1182724604
 30
0.0
 10
18.0937456911
 20
12.0641054534
 30
0.0
 10
18.1144983079
 20
12.0244710873
 30
0.0
 10
18.1325320477
 20
11.9974658302
 30
0.0
 10
18.1461124508
 20
11.9802749623
 30
0.0
 10
18.1601460647
 20
11.9655497771
 30
0.0
 10
18.1745711039
 20
11.9533587172
 30
0.0
 10
18.1893349987
 20
11.9437735165
 30
0.0
 10
18.2043771994
 20
11.9368569759
 30
0.0
 10
18.2196196988
 20
11.9326707595
 30
0.0
 10
18.2299140115
 20
11.9317333626
 30
0.0
 10
18.23498183
 20
11.9317329474
 30
0.0
  0
SPLINE
  5
39F
100
AcDbEntity
  8
0
100
AcDbSpline
 62
7
  6
BYLAYER
 70
0
 71
3
 72
9
 73
5
 74
0
 42
0.0000001
 43
0.0000001
 44
0.0000000001
 40
0.0
 40
0.0
 40
0.0
 40
0.0
 40
0.4818021616
 40
1.0
 40
1.0
 40
1.0
 40
1.0
 10
18.0519838158
 20
13.2199957319
 30
0.0
 10
18.0650154507
 20
13.1922616773
 30
0.0
 10
18.0897485515
 20
13.1335971786
 30
0.0
 10
18.1105406385
 20
13.0734453223
 30
0.0
 10
18.1204303778
 20
13.0420062015
 30
0.0
  0
SPLINE
  5
3A0
100
AcDbEntity
  8
0
100
AcDbSpline
 62
7
  6
BYLAYER
 70
0
 71
3
 72
23
 73
19
 74
0
 42
0.0000001
 43
0.0000001
 44
0.0000000001
 40
0.0
 40
0.0
 40
0.0
 40
0.0
 40
0.0785507651
 40
0.1510349969
 40
0.2176167142
 40
0.2786696268
 40
0.3348470521
 40
0.387116827
 40
0.4367906832
 40
0.4854567257
 40
0.5348266454
 40
0.5865263528
 40
0.6419235463
 40
0.7020476416
 40
0.7675985099
 40
0.8390103688
 40
0.9164960512
 40
1.0
 40
1.0
 40
1.0
 40
1.0
 10
18.0981729858
 20
11.9388194184
 30
0.0
 10
18.0927073134
 20
11.9291076253
 30
0.0
 10
18.0815429176
 20
11.9107886009
 30
0.0
 10
18.0632833761
 20
11.8858418337
 30
0.0
 10
18.0442840575
 20
11.8646695798
 30
0.0
 10
18.0246372253
 20
11.8474119928
 30
0.0
 10
18.0044403964
 20
11.8341872461
 30
0.0
 10
17.98378878
 20
11.8251270902
 30
0.0
 10
17.9628177937
 20
11.8203508631
 30
0.0
 10
17.9417146149
 20
11.8199581534
 30
0.0
 10
17.9207040582
 20
11.8239524838
 30
0.0
 10
17.8999844933
 20
11.832255952
 30
0.0
 10
17.8796979082
 20
11.8447440277
 30
0.0
 10
17.8599467879
 20
11.8612886871
 30
0.0
 10
17.8408240885
 20
11.8817678579
 30
0.0
 10
17.822422411
 20
11.9060529626
 30
0.0
 10
17.804850179
 20
11.9339915939
 30
0.0
 10
17.7941449862
 20
11.9541912133
 30
0.0
 10
17.7889259262
 20
11.9648265395
 30
0.0
  0
SPLINE
  5
3A1
100
AcDbEntity
  8
0
100
AcDbSpline
 62
7
  6
BYLAYER
 70
0
 71
3
 72
16
 73
12
 74
0
 42
0.0000001
 43
0.0000001
 44
0.0000000001
 40
0.0
 40
0.0
 40
0.0
 40
0.0
 40
0.0487947765
 40
0.1009179014
 40
0.2141225736
 40
0.3374366245
 40
0.4680888193
 40
0.6029711642
 40
0.7387911681
 40
0.8722072207
 40
1.0
 40
1.0
 40
1.0
 40
1.0
 10
17.7889259262
 20
11.9648265395
 30
0.0
 10
17.784258926
 20
11.974336886
 30
0.0
 10
17.7753063745
 20
11.9943547153
 30
0.0
 10
17.7588908512
 20
12.0378700426
 30
0.0
 10
17.7415560728
 20
12.0982044879
 30
0.0
 10
17.7261470923
 20
12.1764952168
 30
0.0
 10
17.7160546005
 20
12.2603854793
 30
0.0
 10
17.7115742247
 20
12.3474714644
 30
0.0
 10
17.7128417211
 20
12.4352647085
 30
0.0
 10
17.719816553
 20
12.5212422899
 30
0.0
 10
17.7283860011
 20
12.5773659884
 30
0.0
 10
17.7336884031
 20
12.6045994726
 30
0.0
  0
SPLINE
  5
3A2
100
AcDbEntity
  8
02___PRT_ALL_AXES
100
AcDbSpline
 62
7
  6
BYLAYER
 70
0
 71
3
 72
17
 73
13
 74
0
 42
0.0000001
 43
0.0000001
 44
0.0000000001
 40
0.0
 40
0.0
 40
0.0
 40
0.0
 40
0.0328478074
 40
0.0676279268
 40
0.1059114104
 40
0.148752321
 40
0.2498936423
 40
0.3721854089
 40
0.5131913382
 40
0.6685235917
 40
0.8329156281
 40
1.0
 40
1.0
 40
1.0
 40
1.0
 10
18.2872567085
 20
12.908504228
 30
0.0
 10
18.2879300048
 20
12.9085049478
 30
0.0
 10
18.2893221523
 20
12.9087010901
 30
0.0
 10
18.2913409485
 20
12.9095512971
 30
0.0
 10
18.2932916407
 20
12.9109342508
 30
0.0
 10
18.2959271706
 20
12.9136025499
 30
0.0
 10
18.2988845444
 20
12.9182528601
 30
0.0
 10
18.3017515071
 20
12.9251730348
 30
0.0
 10
18.3040114517
 20
12.933471228
 30
0.0
 10
18.3055661724
 20
12.9427994705
 30
0.0
 10
18.3063413222
 20
12.9527589102
 30
0.0
 10
18.3063181031
 20
12.9595621415
 30
0.0
 10
18.306164742
 20
12.9629835118
 30
0.0
  0
SPLINE
  5
3A3
100
AcDbEntity
  8
0
100
AcDbSpline
 62
7
  6
BYLAYER
 70
0
 71
3
 72
9
 73
5
 74
0
 42
0.0000001
 43
0.0000001
 44
0.0000000001
 40
0.0
 40
0.0
 40
0.0
 40
0.0
 40
0.2435031035
 40
1.0
 40
1.0
 40
1.0
 40
1.0
 10
17.7934297141
 20
12.8884825236
 30
0.0
 10
17.7918931421
 20
12.8860033646
 30
0.0
 10
17.7856773429
 20
12.8757637353
 30
0.0
 10
17.7798306964
 20
12.8653012782
 30
0.0
 10
17.7755957813
 20
12.8572903159
 30
0.0
  0
SPLINE
  5
3A4
100
AcDbEntity
  8
0
100
AcDbSpline
 62
7
  6
BYLAYER
 70
0
 71
3
 72
39
 73
35
 74
0
 42
0.0000001
 43
0.0000001
 44
0.0000000001
 40
0.0
 40
0.0
 40
0.0
 40
0.0
 40
0.1396360397
 40
0.2087173153
 40
0.277373246
 40
0.3456954715
 40
0.4138378813
 40
0.4479195606
 40
0.4820738271
 40
0.5163769802
 40
0.5509447872
 40
0.5859667366
 40
0.6037460622
 40
0.6217904022
 40
0.6402073981
 40
0.6591745788
 40
0.6790110597
 40
0.7002398843
 40
0.7112710249
 40
0.7207065455
 40
0.7276923309
 40
0.7331367391
 40
0.7381186355
 40
0.7430090982
 40
0.7529399328
 40
0.7632491439
 40
0.7739231161
 40
0.7961804495
 40
0.8194304804
 40
0.8434826063
 40
0.868217098
 40
0.893554072
 40
0.9458226536
 40
1.0
 40
1.0
 40
1.0
 40
1.0
 10
17.7910272271
 20
12.8181696822
 30
0.0
 10
17.7931627868
 20
12.8243068636
 30
0.0
 10
17.7963917557
 20
12.8334674353
 30
0.0
 10
17.800731655
 20
12.8456238599
 30
0.0
 10
17.8039687712
 20
12.8546501628
 30
0.0
 10
17.8071882065
 20
12.8636363814
 30
0.0
 10
17.8098420815
 20
12.8711161402
 30
0.0
 10
17.8119292226
 20
12.8771096798
 30
0.0
 10
17.8134723547
 20
12.8816250878
 30
0.0
 10
17.8149850425
 20
12.8861746858
 30
0.0
 10
17.8164549693
 20
12.890780732
 30
0.0
 10
17.8176218112
 20
12.8946759516
 30
0.0
 10
17.818500977
 20
12.8978535746
 30
0.0
 10
17.8191288532
 20
12.9002986353
 30
0.0
 10
17.8197075752
 20
12.9028124807
 30
0.0
 10
17.8202139647
 20
12.905428246
 30
0.0
 10
17.8205873105
 20
12.9081964591
 30
0.0
 10
17.82069266
 20
12.9106326253
 30
0.0
 10
17.8204046537
 20
12.9125594169
 30
0.0
 10
17.8199358465
 20
12.9137696515
 30
0.0
 10
17.819219084
 20
12.914537219
 30
0.0
 10
17.8184494838
 20
12.914845518
 30
0.0
 10
17.817732326
 20
12.9149033511
 30
0.0
 10
17.8168136982
 20
12.9147861879
 30
0.0
 10
17.8157021667
 20
12.9143906558
 30
0.0
 10
17.8144326075
 20
12.9137095159
 30
0.0
 10
17.8127594653
 20
12.9125871042
 30
0.0
 10
17.8107442303
 20
12.9109129778
 30
0.0
 10
17.8084246881
 20
12.9086525474
 30
0.0
 10
17.8061589123
 20
12.9061798991
 30
0.0
 10
17.8039397791
 20
12.9035380028
 30
0.0
 10
17.8010061669
 20
12.8997852912
 30
0.0
 10
17.7974464549
 20
12.8947877555
 30
0.0
 10
17.7947579208
 20
12.8906254987
 30
0.0
 10
17.7934297141
 20
12.8884825236
 30
0.0
  0
SPLINE
  5
3A5
100
AcDbEntity
  8
02___PRT_ALL_AXES
100
AcDbSpline
 62
7
  6
BYLAYER
 70
0
 71
3
 72
13
 73
9
 74
0
 42
0.0000001
 43
0.0000001
 44
0.0000000001
 40
0.0
 40
0.0
 40
0.0
 40
0.0
 40
0.0859159704
 40
0.1775515467
 40
0.2793768109
 40
0.3943308344
 40
0.6682047645
 40
1.0
 40
1.0
 40
1.0
 40
1.0
 10
18.4013851114
 20
12.6759106567
 30
0.0
 10
18.4021051855
 20
12.6759097335
 30
0.0
 10
18.4036010002
 20
12.6761332678
 30
0.0
 10
18.4057562038
 20
12.677106445
 30
0.0
 10
18.4078295086
 20
12.6786793612
 30
0.0
 10
18.4106218555
 20
12.6817206139
 30
0.0
 10
18.4136995163
 20
12.6869843676
 30
0.0
 10
18.4154838908
 20
12.6917527138
 30
0.0
 10
18.4163049224
 20
12.694409573
 30
0.0
  0
SPLINE
  5
3A6
100
AcDbEntity
  8
02___PRT_ALL_AXES
100
AcDbSpline
 62
7
  6
BYLAYER
 70
0
 71
3
 72
14
 73
10
 74
0
 42
0.0000001
 43
0.0000001
 44
0.0000000001
 40
0.0
 40
0.0
 40
0.0
 40
0.0
 40
0.2699413971
 40
0.409422653
 40
0.5451038101
 40
0.6729232389
 40
0.7905540687
 40
0.898363335
 40
1.0
 40
1.0
 40
1.0
 40
1.0
 10
17.9664618638
 20
13.556819943
 30
0.0
 10
17.9592115328
 20
13.556819943
 30
0.0
 10
17.9481078279
 20
13.5541944459
 30
0.0
 10
17.9353154113
 20
13.5469763349
 30
0.0
 10
17.9270417067
 20
13.5398688494
 30
0.0
 10
17.9208291368
 20
13.5316220131
 30
0.0
 10
17.9171212515
 20
13.5227585807
 30
0.0
 10
17.9162621747
 20
13.5138618389
 30
0.0
 10
17.9177667975
 20
13.5082813669
 30
0.0
 10
17.9189685312
 20
13.5058302618
 30
0.0
  0
SPLINE
  5
3A7
100
AcDbEntity
  8
02___PRT_ALL_AXES
100
AcDbSpline
 62
7
  6
BYLAYER
 70
0
 71
3
 72
13
 73
9
 74
0
 42
0.0000001
 43
0.0000001
 44
0.0000000001
 40
0.0
 40
0.0
 40
0.0
 40
0.0
 40
0.1031957305
 40
0.210660594
 40
0.3254562861
 40
0.4488597387
 40
0.717263436
 40
1.0
 40
1.0
 40
1.0
 40
1.0
 10
18.0709814009
 20
13.7923327638
 30
0.0
 10
18.070008737
 20
13.7943186225
 30
0.0
 10
18.0673719131
 20
13.7980835632
 30
0.0
 10
18.0618092754
 20
13.8024318016
 30
0.0
 10
18.0549243487
 20
13.8053598359
 30
0.0
 10
18.0441637144
 20
13.8072775479
 30
0.0
 10
18.0294936048
 20
13.8055207786
 30
0.0
 10
18.01859145
 20
13.8004497475
 30
0.0
 10
18.0135663375
 20
13.7970655042
 30
0.0
  0
SPLINE
  5
3A8
100
AcDbEntity
  8
0
100
AcDbSpline
 62
7
  6
BYLAYER
 70
0
 71
3
 72
11
 73
7
 74
0
 42
0.0000001
 43
0.0000001
 44
0.0000000001
 40
0.0
 40
0.0
 40
0.0
 40
0.0
 40
0.2617823039
 40
0.5172499606
 40
0.7637096935
 40
1.0
 40
1.0
 40
1.0
 40
1.0
 10
17.7336884031
 20
12.6045994726
 30
0.0
 10
17.7373458851
 20
12.6233845403
 30
0.0
 10
17.7450314122
 20
12.6604173677
 30
0.0
 10
17.7584965696
 20
12.714616461
 30
0.0
 10
17.7735746834
 20
12.7664497111
 30
0.0
 10
17.7847027406
 20
12.7999487508
 30
0.0
 10
17.7903664007
 20
12.816268094
 30
0.0
  0
LINE
  5
3A9
100
AcDbEntity
  8
0
100
AcDbLine
 62
7
  6
BYLAYER
 10
17.7903664007
 20
12.816268094
 11
17.7910272271
 21
12.8181696822
  0
SPLINE
  5
3AA
100
AcDbEntity
  8
0
100
AcDbSpline
 62
7
  6
BYLAYER
 70
0
 71
3
 72
16
 73
12
 74
0
 42
0.0000001
 43
0.0000001
 44
0.0000000001
 40
0.0
 40
0.0
 40
0.0
 40
0.0
 40
0.1727277788
 40
0.3318329829
 40
0.476263825
 40
0.60572772
 40
0.720621193
 40
0.8224009997
 40
0.9139510908
 40
0.9573472248
 40
1.0
 40
1.0
 40
1.0
 40
1.0
 10
18.0655187055
 20
12.832626332
 30
0.0
 10
18.0703789053
 20
12.8483539442
 30
0.0
 10
18.08066343
 20
12.8782907764
 30
0.0
 10
18.0985999344
 20
12.9200384804
 30
0.0
 10
18.1182485748
 20
12.956402796
 30
0.0
 10
18.1393799416
 20
12.9869502182
 30
0.0
 10
18.16179921
 20
13.0113317449
 30
0.0
 10
18.1853198146
 20
13.0292375295
 30
0.0
 10
18.2061310093
 20
13.0386149725
 30
0.0
 10
18.2227128103
 20
13.0422450593
 30
0.0
 10
18.2309260573
 20
13.0428423071
 30
0.0
 10
18.2349909884
 20
13.0428419741
 30
0.0
  0
SPLINE
  5
3AB
100
AcDbEntity
  8
02___PRT_ALL_AXES
100
AcDbSpline
 62
7
  6
BYLAYER
 70
0
 71
3
 72
17
 73
13
 74
0
 42
0.0000001
 43
0.0000001
 44
0.0000000001
 40
0.0
 40
0.0
 40
0.0
 40
0.0
 40
0.050785639
 40
0.1027115068
 40
0.2130418717
 40
0.3354275365
 40
0.4686469943
 40
0.6079206891
 40
0.67794138
 40
0.747024586
 40
0.879108976
 40
1.0
 40
1.0
 40
1.0
 40
1.0
 10
17.9178610005
 20
13.9689884687
 30
0.0
 10
17.9171567776
 20
13.9704210162
 30
0.0
 10
17.9154033968
 20
13.9731686462
 30
0.0
 10
17.9106409678
 20
13.9779397741
 30
0.0
 10
17.9024794844
 20
13.9821359458
 30
0.0
 10
17.8909377365
 20
13.9838017873
 30
0.0
 10
17.8784944843
 20
13.9822640006
 30
0.0
 10
17.8683149999
 20
13.9784581137
 30
0.0
 10
17.8607390297
 20
13.9740472008
 30
0.0
 10
17.8539061634
 20
13.9689237503
 30
0.0
 10
17.8469196272
 20
13.9614534901
 30
0.0
 10
17.8432035611
 20
13.9542558883
 30
0.0
 10
17.8420816736
 20
13.9506254591
 30
0.0
  0
SPLINE
  5
3AC
100
AcDbEntity
  8
02___PRT_ALL_AXES
100
AcDbSpline
 62
7
  6
BYLAYER
 70
0
 71
3
 72
12
 73
8
 74
0
 42
0.0000001
 43
0.0000001
 44
0.0000000001
 40
0.0
 40
0.0
 40
0.0
 40
0.0
 40
0.28537213
 40
0.5482032364
 40
0.783336304
 40
0.8930741235
 40
1.0
 40
1.0
 40
1.0
 40
1.0
 10
17.2272461942
 20
13.5472603122
 30
0.0
 10
17.2234047584
 20
13.5446732351
 30
0.0
 10
17.2165931848
 20
13.5387647274
 30
0.0
 10
17.2095305889
 20
13.5279770489
 30
0.0
 10
17.2071759032
 20
13.5181060283
 30
0.0
 10
17.2079098691
 20
13.5107523301
 30
0.0
 10
17.2090779635
 20
13.5073935029
 30
0.0
 10
17.2098412755
 20
13.5058350717
 30
0.0
  0
SPLINE
  5
3AD
100
AcDbEntity
  8
02___PRT_ALL_AXES
100
AcDbSpline
 62
7
  6
BYLAYER
 70
0
 71
3
 72
19
 73
15
 74
0
 42
0.0000001
 43
0.0000001
 44
0.0000000001
 40
0.0
 40
0.0
 40
0.0
 40
0.0
 40
0.0313852112
 40
0.0665255793
 40
0.1078722031
 40
0.1565166979
 40
0.2125481958
 40
0.2754804481
 40
0.4179574941
 40
0.5738524124
 40
0.7308416845
 40
0.8764220623
 40
0.9415674586
 40
1.0
 40
1.0
 40
1.0
 40
1.0
 10
18.327482999
 20
12.0110819302
 30
0.0
 10
18.3284781775
 20
12.0110830052
 30
0.0
 10
18.3306028722
 20
12.0115329757
 30
0.0
 10
18.333524626
 20
12.0134080023
 30
0.0
 10
18.3362367491
 20
12.0163446447
 30
0.0
 10
18.3387174218
 20
12.0202758333
 30
0.0
 10
18.3409361137
 20
12.0251184172
 30
0.0
 10
18.3435837146
 20
12.0329863479
 30
0.0
 10
18.3458099288
 20
12.0442722572
 30
0.0
 10
18.3467997712
 20
12.0587089725
 30
0.0
 10
18.3460962064
 20
12.0732604899
 30
0.0
 10
18.3441020282
 20
12.084793685
 30
0.0
 10
18.341623794
 20
12.0929699546
 30
0.0
 10
18.3401285081
 20
12.096602404
 30
0.0
 10
18.339312266
 20
12.0982657305
 30
0.0
  0
SPLINE
  5
3AE
100
AcDbEntity
  8
02___PRT_ALL_AXES
100
AcDbSpline
 62
7
  6
BYLAYER
 70
0
 71
3
 72
17
 73
13
 74
0
 42
0.0000001
 43
0.0000001
 44
0.0000000001
 40
0.0
 40
0.0
 40
0.0
 40
0.0
 40
0.0328478074
 40
0.0676279268
 40
0.1059114104
 40
0.148752321
 40
0.2498936423
 40
0.3721854089
 40
0.5131913382
 40
0.6685235917
 40
0.8329156281
 40
1.0
 40
1.0
 40
1.0
 40
1.0
 10
18.1827267365
 20
11.9682931268
 30
0.0
 10
18.1834000328
 20
11.9682938466
 30
0.0
 10
18.1847921803
 20
11.9684899889
 30
0.0
 10
18.1868109765
 20
11.9693401959
 30
0.0
 10
18.1887616687
 20
11.9707231496
 30
0.0
 10
18.1913971986
 20
11.9733914487
 30
0.0
 10
18.1943545724
 20
11.9780417589
 30
0.0
 10
18.1972215351
 20
11.9849619336
 30
0.0
 10
18.1994814797
 20
11.9932601268
 30
0.0
 10
18.2010362004
 20
12.0025883693
 30
0.0
 10
18.2018113502
 20
12.012547809
 30
0.0
 10
18.2017881311
 20
12.0193510403
 30
0.0
 10
18.20163477
 20
12.0227724106
 30
0.0
  0
SPLINE
  5
3AF
100
AcDbEntity
  8
02___PRT_ALL_AXES
100
AcDbSpline
 62
7
  6
BYLAYER
 70
0
 71
3
 72
10
 73
6
 74
0
 42
0.0000001
 43
0.0000001
 44
0.0000000001
 40
0.0
 40
0.0
 40
0.0
 40
0.0
 40
0.5161344746
 40
0.7604943016
 40
1.0
 40
1.0
 40
1.0
 40
1.0
 10
17.8420816736
 20
13.9506254591
 30
0.0
 10
17.8411279265
 20
13.9475391323
 30
0.0
 10
17.8404135088
 20
13.9426975283
 30
0.0
 10
17.8413432787
 20
13.9364754876
 30
0.0
 10
17.842396127
 20
13.9336076873
 30
0.0
 10
17.8430574295
 20
13.9322624494
 30
0.0
  0
SPLINE
  5
3B0
100
AcDbEntity
  8
02___PRT_ALL_AXES
100
AcDbSpline
 62
7
  6
BYLAYER
 70
0
 71
3
 72
13
 73
9
 74
0
 42
0.0000001
 43
0.0000001
 44
0.0000000001
 40
0.0
 40
0.0
 40
0.0
 40
0.0
 40
0.0859159704
 40
0.1775515467
 40
0.2793768109
 40
0.3943308344
 40
0.6682047645
 40
1.0
 40
1.0
 40
1.0
 40
1.0
 10
18.0685744009
 20
12.2008867908
 30
0.0
 10
18.0692944751
 20
12.2008858676
 30
0.0
 10
18.0707902897
 20
12.201109402
 30
0.0
 10
18.0729454933
 20
12.2020825791
 30
0.0
 10
18.0750187982
 20
12.2036554954
 30
0.0
 10
18.077811145
 20
12.206696748
 30
0.0
 10
18.0808888058
 20
12.2119605017
 30
0.0
 10
18.0826731803
 20
12.2167288479
 30
0.0
 10
18.0834942119
 20
12.2193857071
 30
0.0
  0
SPLINE
  5
3B1
100
AcDbEntity
  8
0
100
AcDbSpline
 62
7
  6
BYLAYER
 70
0
 71
3
 72
15
 73
11
 74
0
 42
0.0000001
 43
0.0000001
 44
0.0000000001
 40
0.0
 40
0.0
 40
0.0
 40
0.0
 40
0.172758025
 40
0.3319117447
 40
0.4763755511
 40
0.6058615397
 40
0.7207814068
 40
0.8225807492
 40
0.9141477816
 40
1.0
 40
1.0
 40
1.0
 40
1.0
 10
18.319720261
 20
12.3146180251
 30
0.0
 10
18.3172901545
 20
12.3067541973
 30
0.0
 10
18.3121472703
 20
12.2917849137
 30
0.0
 10
18.3031786246
 20
12.2709096854
 30
0.0
 10
18.2933537804
 20
12.2527262908
 30
0.0
 10
18.2827857403
 20
12.2374529043
 30
0.0
 10
18.2715786445
 20
12.2252614669
 30
0.0
 10
18.2598086884
 20
12.2163100793
 30
0.0
 10
18.2475634843
 20
12.2107800302
 30
0.0
 10
18.2390679729
 20
12.2095086016
 30
0.0
 10
18.2349776975
 20
12.2095098656
 30
0.0
  0
SPLINE
  5
3B2
100
AcDbEntity
  8
0
100
AcDbSpline
 62
7
  6
BYLAYER
 70
0
 71
3
 72
13
 73
9
 74
0
 42
0.0000001
 43
0.0000001
 44
0.0000000001
 40
0.0
 40
0.0
 40
0.0
 40
0.0
 40
0.1250950905
 40
0.2462665232
 40
0.4847745082
 40
0.7292419647
 40
0.8593844969
 40
1.0
 40
1.0
 40
1.0
 40
1.0
 10
18.0426359966
 20
13.234341825
 30
0.0
 10
18.0389374423
 20
13.2390374239
 30
0.0
 10
18.0311052104
 20
13.2478539816
 30
0.0
 10
18.0142384819
 20
13.2637578877
 30
0.0
 10
17.9908048485
 20
13.2808682757
 30
0.0
 10
17.964109387
 20
13.2935026332
 30
0.0
 10
17.9403071428
 20
13.2999994663
 30
0.0
 10
17.9273892512
 20
13.3015733865
 30
0.0
 10
17.9206728193
 20
13.3017548149
 30
0.0
  0
SPLINE
  5
3B3
100
AcDbEntity
  8
02___PRT_ALL_AXES
100
AcDbSpline
 62
7
  6
BYLAYER
 70
0
 71
3
 72
11
 73
7
 74
0
 42
0.0000001
 43
0.0000001
 44
0.0000000001
 40
0.0
 40
0.0
 40
0.0
 40
0.0
 40
0.3156806228
 40
0.5821591739
 40
0.8046012074
 40
1.0
 40
1.0
 40
1.0
 40
1.0
 10
18.1543292596
 20
12.9529011554
 30
0.0
 10
18.153557962
 20
12.9544728946
 30
0.0
 10
18.1519527381
 20
12.9572909281
 30
0.0
 10
18.1490648652
 20
12.9607355632
 30
0.0
 10
18.1459087936
 20
12.9629527106
 30
0.0
 10
18.1435735158
 20
12.9634941619
 30
0.0
 10
18.1424898194
 20
12.9634929913
 30
0.0
  0
SPLINE
  5
3B4
100
AcDbEntity
  8
02___PRT_ALL_AXES
100
AcDbSpline
 62
7
  6
BYLAYER
 70
0
 71
3
 72
19
 73
15
 74
0
 42
0.0000001
 43
0.0000001
 44
0.0000000001
 40
0.0
 40
0.0
 40
0.0
 40
0.0
 40
0.0313852112
 40
0.0665255793
 40
0.1078722031
 40
0.1565166979
 40
0.2125481958
 40
0.2754804481
 40
0.4179574941
 40
0.5738524124
 40
0.7308416845
 40
0.8764220623
 40
0.9415674586
 40
1.0
 40
1.0
 40
1.0
 40
1.0
 10
18.1424999926
 20
12.8657173551
 30
0.0
 10
18.1434951711
 20
12.8657184302
 30
0.0
 10
18.1456198658
 20
12.8661684007
 30
0.0
 10
18.1485416196
 20
12.8680434272
 30
0.0
 10
18.1512537427
 20
12.8709800697
 30
0.0
 10
18.1537344154
 20
12.8749112582
 30
0.0
 10
18.1559531073
 20
12.8797538421
 30
0.0
 10
18.1586007082
 20
12.8876217729
 30
0.0
 10
18.1608269224
 20
12.8989076821
 30
0.0
 10
18.1618167648
 20
12.9133443974
 30
0.0
 10
18.1611132
 20
12.9278959148
 30
0.0
 10
18.1591190218
 20
12.9394291099
 30
0.0
 10
18.1566407876
 20
12.9476053796
 30
0.0
 10
18.1551455017
 20
12.951237829
 30
0.0
 10
18.1543292596
 20
12.9529011554
 30
0.0
  0
SPLINE
  5
3B5
100
AcDbEntity
  8
0
100
AcDbSpline
 62
7
  6
BYLAYER
 70
0
 71
3
 72
10
 73
6
 74
0
 42
0.0000001
 43
0.0000001
 44
0.0000000001
 40
0.0
 40
0.0
 40
0.0
 40
0.0
 40
0.5151703601
 40
0.7604952958
 40
1.0
 40
1.0
 40
1.0
 40
1.0
 10
17.4526778877
 20
13.6145500307
 30
0.0
 10
17.448587498
 20
13.6013135249
 30
0.0
 10
17.4449252009
 20
13.5808367262
 30
0.0
 10
17.4462440683
 20
13.5538979047
 30
0.0
 10
17.4489225448
 20
13.5410670056
 30
0.0
 10
17.4507516432
 20
13.5348913529
 30
0.0
  0
SPLINE
  5
3B6
100
AcDbEntity
  8
02___PRT_ALL_AXES
100
AcDbSpline
 62
7
  6
BYLAYER
 70
0
 71
3
 72
11
 73
7
 74
0
 42
0.0000001
 43
0.0000001
 44
0.0000000001
 40
0.0
 40
0.0
 40
0.0
 40
0.0
 40
0.2268632804
 40
0.4650145788
 40
0.722100556
 40
1.0
 40
1.0
 40
1.0
 40
1.0
 10
17.3618541452
 20
13.7923375737
 30
0.0
 10
17.3607757426
 20
13.7945371277
 30
0.0
 10
17.3577583257
 20
13.7986894505
 30
0.0
 10
17.3513035005
 20
13.8032662406
 30
0.0
 10
17.3433360196
 20
13.806049528
 30
0.0
 10
17.3375337914
 20
13.806625135
 30
0.0
 10
17.3345330062
 20
13.806625135
 30
0.0
  0
SPLINE
  5
3B7
100
AcDbEntity
  8
02___PRT_ALL_AXES
100
AcDbSpline
 62
7
  6
BYLAYER
 70
0
 71
3
 72
19
 73
15
 74
0
 42
0.0000001
 43
0.0000001
 44
0.0000000001
 40
0.0
 40
0.0
 40
0.0
 40
0.0
 40
0.0533440231
 40
0.1095469655
 40
0.1691887665
 40
0.2324853322
 40
0.3679987391
 40
0.5101117299
 40
0.6498836108
 40
0.779221135
 40
0.8387828776
 40
0.8948654775
 40
0.9481769832
 40
1.0
 40
1.0
 40
1.0
 40
1.0
 10
17.7283614141
 20
13.3706213669
 30
0.0
 10
17.7271098998
 20
13.3720651851
 30
0.0
 10
17.7241506088
 20
13.3747094727
 30
0.0
 10
17.7187962452
 20
13.3776409556
 30
0.0
 10
17.7126223726
 20
13.3795326796
 30
0.0
 10
17.7033893584
 20
13.3806263342
 30
0.0
 10
17.6910781794
 20
13.3790883344
 30
0.0
 10
17.6771191171
 20
13.3732902883
 30
0.0
 10
17.6652862311
 20
13.3642372702
 30
0.0
 10
17.6582107896
 20
13.3545419375
 30
0.0
 10
17.6551329807
 20
13.3462709511
 30
0.0
 10
17.6542046522
 20
13.3402416306
 30
0.0
 10
17.6546516968
 20
13.3344306667
 30
0.0
 10
17.6558828434
 20
13.3308202608
 30
0.0
 10
17.6567038445
 20
13.3291554404
 30
0.0
  0
SPLINE
  5
3B8
100
AcDbEntity
  8
02___PRT_ALL_AXES
100
AcDbSpline
 62
7
  6
BYLAYER
 70
0
 71
3
 72
12
 73
8
 74
0
 42
0.0000001
 43
0.0000001
 44
0.0000000001
 40
0.0
 40
0.0
 40
0.0
 40
0.0
 40
0.28537213
 40
0.5482032364
 40
0.783336304
 40
0.8930741235
 40
1.0
 40
1.0
 40
1.0
 40
1.0
 10
18.0135663375
 20
13.7970655042
 30
0.0
 10
18.0097249017
 20
13.7944784271
 30
0.0
 10
18.0029133281
 20
13.7885699194
 30
0.0
 10
17.9958507323
 20
13.7777822409
 30
0.0
 10
17.9934960465
 20
13.7679112204
 30
0.0
 10
17.9942300125
 20
13.7605575221
 30
0.0
 10
17.9953981069
 20
13.7571986949
 30
0.0
 10
17.9961614189
 20
13.7556402638
 30
0.0
  0
SPLINE
  5
3B9
100
AcDbEntity
  8
02___PRT_ALL_AXES
100
AcDbSpline
 62
7
  6
BYLAYER
 70
0
 71
3
 72
13
 73
9
 74
0
 42
0.0000001
 43
0.0000001
 44
0.0000000001
 40
0.0
 40
0.0
 40
0.0
 40
0.0
 40
0.1031957305
 40
0.210660594
 40
0.3254562861
 40
0.4488597387
 40
0.717263436
 40
1.0
 40
1.0
 40
1.0
 40
1.0
 10
17.2846612575
 20
13.5425275718
 30
0.0
 10
17.2836885936
 20
13.5445134304
 30
0.0
 10
17.2810517698
 20
13.5482783712
 30
0.0
 10
17.275489132
 20
13.5526266096
 30
0.0
 10
17.2686042053
 20
13.5555546439
 30
0.0
 10
17.257843571
 20
13.5574723559
 30
0.0
 10
17.2431734615
 20
13.5557155866
 30
0.0
 10
17.2322713067
 20
13.5506445555
 30
0.0
 10
17.2272461942
 20
13.5472603122
 30
0.0
  0
LINE
  5
3BA
100
AcDbEntity
  8
0
100
AcDbLine
 62
7
  6
BYLAYER
 10
18.1598883896
 20
13.0460206745
 11
18.1607594217
 21
13.0429711867
  0
SPLINE
  5
3BB
100
AcDbEntity
  8
0
100
AcDbSpline
 62
7
  6
BYLAYER
 70
0
 71
3
 72
10
 73
6
 74
0
 42
0.0000001
 43
0.0000001
 44
0.0000000001
 40
0.0
 40
0.0
 40
0.0
 40
0.0
 40
0.2657450255
 40
0.5178430712
 40
1.0
 40
1.0
 40
1.0
 40
1.0
 10
18.0519838158
 20
13.2199957319
 30
0.0
 10
18.0513376577
 20
13.221370892
 30
0.0
 10
18.0499179042
 20
13.2239753201
 30
0.0
 10
18.0468426653
 20
13.2287972395
 30
0.0
 10
18.0443417812
 20
13.2321762004
 30
0.0
 10
18.0426359966
 20
13.234341825
 30
0.0
  0
SPLINE
  5
3BC
100
AcDbEntity
  8
02___PRT_ALL_AXES
100
AcDbSpline
 62
7
  6
BYLAYER
 70
0
 71
3
 72
21
 73
17
 74
0
 42
0.0000001
 43
0.0000001
 44
0.0000000001
 40
0.0
 40
0.0
 40
0.0
 40
0.0
 40
0.0801866115
 40
0.1343893283
 40
0.1980477235
 40
0.2699655022
 40
0.348329046
 40
0.5151616757
 40
0.5987392803
 40
0.6790203582
 40
0.7536786352
 40
0.820721595
 40
0.8786760147
 40
0.9269360318
 40
0.9663150211
 40
1.0
 40
1.0
 40
1.0
 40
1.0
 10
18.0540957284
 20
12.5729322175
 30
0.0
 10
18.056901479
 20
12.5737615551
 30
0.0
 10
18.0607065761
 20
12.577543171
 30
0.0
 10
18.0642015429
 20
12.5837909546
 30
0.0
 10
18.0667187554
 20
12.5902897231
 30
0.0
 10
18.0687058286
 20
12.5978436069
 30
0.0
 10
18.0706325368
 20
12.6092668315
 30
0.0
 10
18.0712114844
 20
12.6213021368
 30
0.0
 10
18.0705044586
 20
12.6333548113
 30
0.0
 10
18.0693267389
 20
12.6419876113
 30
0.0
 10
18.0675509447
 20
12.6499015352
 30
0.0
 10
18.0652398606
 20
12.656826111
 30
0.0
 10
18.0624698928
 20
12.6625352984
 30
0.0
 10
18.0593172845
 20
12.6668573172
 30
0.0
 10
18.0558080607
 20
12.6696850509
 30
0.0
 10
18.0531197429
 20
12.6703914134
 30
0.0
 10
18.0518906913
 20
12.6703875591
 30
0.0
  0
SPLINE
  5
3BD
100
AcDbEntity
  8
0
100
AcDbSpline
 62
7
  6
BYLAYER
 70
0
 71
3
 72
24
 73
20
 74
0
 42
0.0000001
 43
0.0000001
 44
0.0000000001
 40
0.0
 40
0.0
 40
0.0
 40
0.0
 40
0.0154323948
 40
0.0312783084
 40
0.0655589438
 40
0.1051518584
 40
0.1511690561
 40
0.2039161789
 40
0.2631601593
 40
0.3283028828
 40
0.3984889488
 40
0.4726792946
 40
0.5497049292
 40
0.6283104566
 40
0.707193763
 40
0.7850469311
 40
0.8605824112
 40
0.9326108318
 40
1.0
 40
1.0
 40
1.0
 40
1.0
 10
18.2349951209
 20
12.7650650559
 30
0.0
 10
18.2375290156
 20
12.7650642729
 30
0.0
 10
18.2426759655
 20
12.7645931197
 30
0.0
 10
18.2531033128
 20
12.761732699
 30
0.0
 10
18.266094271
 20
12.7543007783
 30
0.0
 10
18.2803127256
 20
12.7404914392
 30
0.0
 10
18.2935446921
 20
12.7219105506
 30
0.0
 10
18.3056093492
 20
12.698874506
 30
0.0
 10
18.3163178161
 20
12.6717865815
 30
0.0
 10
18.3254691815
 20
12.6411433692
 30
0.0
 10
18.3328873346
 20
12.6075238038
 30
0.0
 10
18.3384256801
 20
12.5715725094
 30
0.0
 10
18.3419741245
 20
12.533984146
 30
0.0
 10
18.3434616924
 20
12.4954880214
 30
0.0
 10
18.3428586931
 20
12.456832111
 30
0.0
 10
18.3401765734
 20
12.4187694761
 30
0.0
 10
18.3354709066
 20
12.3820355567
 30
0.0
 10
18.3288326152
 20
12.3473485948
 30
0.0
 10
18.3229871276
 20
12.325189609
 30
0.0
 10
18.319720261
 20
12.3146180251
 30
0.0
  0
SPLINE
  5
3BE
100
AcDbEntity
  8
02___PRT_ALL_AXES
100
AcDbSpline
 62
7
  6
BYLAYER
 70
0
 71
3
 72
14
 73
10
 74
0
 42
0.0000001
 43
0.0000001
 44
0.0000000001
 40
0.0
 40
0.0
 40
0.0
 40
0.0
 40
0.2699413971
 40
0.409422653
 40
0.5451038101
 40
0.6729232389
 40
0.7905540687
 40
0.898363335
 40
1.0
 40
1.0
 40
1.0
 40
1.0
 10
17.3345330062
 20
13.806625135
 30
0.0
 10
17.3272826753
 20
13.806625135
 30
0.0
 10
17.3161789704
 20
13.8039996379
 30
0.0
 10
17.3033865537
 20
13.796781527
 30
0.0
 10
17.2951128491
 20
13.7896740415
 30
0.0
 10
17.2889002792
 20
13.7814272052
 30
0.0
 10
17.285192394
 20
13.7725637727
 30
0.0
 10
17.2843333171
 20
13.7636670309
 30
0.0
 10
17.28583794
 20
13.7580865589
 30
0.0
 10
17.2870396736
 20
13.7556354539
 30
0.0
  0
SPLINE
  5
3BF
100
AcDbEntity
  8
02___PRT_ALL_AXES
100
AcDbSpline
 62
7
  6
BYLAYER
 70
0
 71
3
 72
17
 73
13
 74
0
 42
0.0000001
 43
0.0000001
 44
0.0000000001
 40
0.0
 40
0.0
 40
0.0
 40
0.0
 40
0.050785639
 40
0.1027115068
 40
0.2130418717
 40
0.3354275365
 40
0.4686469943
 40
0.6079206891
 40
0.67794138
 40
0.747024586
 40
0.879108976
 40
1.0
 40
1.0
 40
1.0
 40
1.0
 10
17.4377652469
 20
13.3659053861
 30
0.0
 10
17.437061024
 20
13.3673379337
 30
0.0
 10
17.4353076432
 20
13.3700855636
 30
0.0
 10
17.4305452142
 20
13.3748566916
 30
0.0
 10
17.4223837308
 20
13.3790528632
 30
0.0
 10
17.4108419829
 20
13.3807187047
 30
0.0
 10
17.3983987307
 20
13.379180918
 30
0.0
 10
17.3882192463
 20
13.3753750311
 30
0.0
 10
17.3806432761
 20
13.3709641182
 30
0.0
 10
17.3738104098
 20
13.3658406677
 30
0.0
 10
17.3668238736
 20
13.3583704075
 30
0.0
 10
17.3631078075
 20
13.3511728058
 30
0.0
 10
17.36198592
 20
13.3475423765
 30
0.0
  0
SPLINE
  5
3C0
100
AcDbEntity
  8
0
100
AcDbSpline
 62
7
  6
BYLAYER
 70
0
 71
3
 72
23
 73
19
 74
0
 42
0.0000001
 43
0.0000001
 44
0.0000000001
 40
0.0
 40
0.0
 40
0.0
 40
0.0
 40
0.085066907
 40
0.1637576737
 40
0.235980359
 40
0.3018404395
 40
0.3617039212
 40
0.4162753609
 40
0.4666626235
 40
0.5144134469
 40
0.5614197343
 40
0.6096839404
 40
0.6610258446
 40
0.7168835786
 40
0.7782473625
 40
0.8457331656
 40
0.9196556745
 40
1.0
 40
1.0
 40
1.0
 40
1.0
 10
18.1463446332
 20
11.9315938429
 30
0.0
 10
18.1402278046
 20
11.9173694642
 30
0.0
 10
18.1276074041
 20
11.8903361726
 30
0.0
 10
18.1065972391
 20
11.852822159
 30
0.0
 10
18.084375272
 20
11.8201468419
 30
0.0
 10
18.0610891483
 20
11.7925516613
 30
0.0
 10
18.0368774431
 20
11.7702456498
 30
0.0
 10
18.0118736978
 20
11.753416922
 30
0.0
 10
17.9862127518
 20
11.7422724331
 30
0.0
 10
17.960100336
 20
11.7370188473
 30
0.0
 10
17.9338504333
 20
11.7378052873
 30
0.0
 10
17.9078298896
 20
11.7446078012
 30
0.0
 10
17.8823230994
 20
11.7572475841
 30
0.0
 10
17.8575139015
 20
11.775517684
 30
0.0
 10
17.8335293444
 20
11.7992136994
 30
0.0
 10
17.810502841
 20
11.8281508261
 30
0.0
 10
17.7885843732
 20
11.862107309
 30
0.0
 10
17.7753464976
 20
11.8869066395
 30
0.0
 10
17.7689039065
 20
11.90003526
 30
0.0
  0
SPLINE
  5
3C1
100
AcDbEntity
  8
0
100
AcDbSpline
 62
7
  6
BYLAYER
 70
0
 71
3
 72
37
 73
33
 74
0
 42
0.0000001
 43
0.0000001
 44
0.0000000001
 40
0.0
 40
0.0
 40
0.0
 40
0.0
 40
0.1246641049
 40
0.1857005672
 40
0.2457593986
 40
0.3047185456
 40
0.3624057117
 40
0.4185646194
 40
0.4727831214
 40
0.5243219726
 40
0.5486602472
 40
0.5716028393
 40
0.5823640021
 40
0.5924860746
 40
0.6017700011
 40
0.609924065
 40
0.6165702538
 40
0.6195639982
 40
0.6230997779
 40
0.6286442188
 40
0.6373550076
 40
0.6482590229
 40
0.6601473487
 40
0.684200431
 40
0.7073966029
 40
0.7300032355
 40
0.7520928048
 40
0.7951833431
 40
0.8372464869
 40
0.8785985075
 40
0.9194307745
 40
1.0
 40
1.0
 40
1.0
 40
1.0
 10
18.1660786442
 20
13.047663505
 30
0.0
 10
18.1653943888
 20
13.0494393287
 30
0.0
 10
18.1643539868
 20
13.0520765853
 30
0.0
 10
18.1629261345
 20
13.0555460083
 30
0.0
 10
18.1618523799
 20
13.058076337
 30
0.0
 10
18.1607678884
 20
13.0605463609
 30
0.0
 10
18.1596723403
 20
13.0629462292
 30
0.0
 10
18.1585658639
 20
13.0652612127
 30
0.0
 10
18.1574492317
 20
13.0674666093
 30
0.0
 10
18.1564966992
 20
13.0692100746
 30
0.0
 10
18.1557199037
 20
13.0705035145
 30
0.0
 10
18.1552343643
 20
13.0712451535
 30
0.0
 10
18.1548403245
 20
13.0717862078
 30
0.0
 10
18.1545523315
 20
13.0721453798
 30
0.0
 10
18.1542658356
 20
13.0724558852
 30
0.0
 10
18.1539879293
 20
13.0726929923
 30
0.0
 10
18.1537354511
 20
13.0728256076
 30
0.0
 10
18.1535269175
 20
13.0728017725
 30
0.0
 10
18.1533791446
 20
13.0726748048
 30
0.0
 10
18.1532910712
 20
13.0724099879
 30
0.0
 10
18.1532465264
 20
13.072029225
 30
0.0
 10
18.153241585
 20
13.0715469119
 30
0.0
 10
18.153297409
 20
13.0708336921
 30
0.0
 10
18.1534245992
 20
13.0699392515
 30
0.0
 10
18.1536146496
 20
13.0688898594
 30
0.0
 10
18.1538259563
 20
13.0678750975
 30
0.0
 10
18.1541208728
 20
13.0665677882
 30
0.0
 10
18.1545105451
 20
13.0649775614
 30
0.0
 10
18.1549980339
 20
13.0631088621
 30
0.0
 10
18.1554955939
 20
13.0612785289
 30
0.0
 10
18.1561650032
 20
13.0588858381
 30
0.0
 10
18.156678865
 20
13.0571051846
 30
0.0
 10
18.1570236643
 20
13.0559245536
 30
0.0
  0
SPLINE
  5
3C2
100
AcDbEntity
  8
0
100
AcDbSpline
 62
7
  6
BYLAYER
 70
0
 71
3
 72
18
 73
14
 74
0
 42
0.0000001
 43
0.0000001
 44
0.0000000001
 40
0.0
 40
0.0
 40
0.0
 40
0.0
 40
0.1114969932
 40
0.1637632707
 40
0.2147106113
 40
0.2652554231
 40
0.316341688
 40
0.3688775189
 40
0.4236805411
 40
0.5425538522
 40
0.6771101081
 40
0.8294062911
 40
1.0
 40
1.0
 40
1.0
 40
1.0
 10
18.0138943073
 20
11.7044755416
 30
0.0
 10
18.0027557313
 20
11.696974003
 30
0.0
 10
17.9851095334
 20
11.6875803305
 30
0.0
 10
17.9602054364
 20
11.6803553642
 30
0.0
 10
17.9417945463
 20
11.6777890491
 30
0.0
 10
17.9233502271
 20
11.6779972045
 30
0.0
 10
17.9049536428
 20
11.6809680408
 30
0.0
 10
17.8866846937
 20
11.6866859503
 30
0.0
 10
17.8619273298
 20
11.6982270908
 30
0.0
 10
17.8314810836
 20
11.7200331314
 30
0.0
 10
17.797656493
 20
11.7555849125
 30
0.0
 10
17.7657802006
 20
11.8007093761
 30
0.0
 10
17.747090768
 20
11.8349033564
 30
0.0
 10
17.7380389656
 20
11.8533489901
 30
0.0
  0
SPLINE
  5
3C3
100
AcDbEntity
  8
02___PRT_ALL_AXES
100
AcDbSpline
 62
7
  6
BYLAYER
 70
0
 71
3
 72
18
 73
14
 74
0
 42
0.0000001
 43
0.0000001
 44
0.0000000001
 40
0.0
 40
0.0
 40
0.0
 40
0.0
 40
0.1393852211
 40
0.2927819298
 40
0.4502785
 40
0.60149873
 40
0.736802521
 40
0.7960744217
 40
0.8488586442
 40
0.894900179
 40
0.9345235345
 40
0.9688231352
 40
1.0
 40
1.0
 40
1.0
 40
1.0
 10
18.0834942119
 20
12.2193857071
 30
0.0
 10
18.0846828024
 20
12.2232319875
 30
0.0
 10
18.0864995471
 20
12.2315246243
 30
0.0
 10
18.0877490129
 20
12.2444926237
 30
0.0
 10
18.0876001209
 20
12.2578660442
 30
0.0
 10
18.0860632372
 20
12.2706222232
 30
0.0
 10
18.0836412541
 20
12.2803544217
 30
0.0
 10
18.0810131068
 20
12.2870086287
 30
0.0
 10
18.0788906234
 20
12.2910638732
 30
0.0
 10
18.0765624542
 20
12.2943343452
 30
0.0
 10
18.0740582975
 20
12.2967663322
 30
0.0
 10
18.0713913265
 20
12.2982991587
 30
0.0
 10
18.0694881612
 20
12.2986631103
 30
0.0
 10
18.068587707
 20
12.2986642648
 30
0.0
  0
SPLINE
  5
3C4
100
AcDbEntity
  8
0
100
AcDbSpline
 62
7
  6
BYLAYER
 70
0
 71
3
 72
11
 73
7
 74
0
 42
0.0000001
 43
0.0000001
 44
0.0000000001
 40
0.0
 40
0.0
 40
0.0
 40
0.0
 40
0.2643796584
 40
0.5171042956
 40
0.7609087708
 40
1.0
 40
1.0
 40
1.0
 40
1.0
 10
17.4357311173
 20
13.6490839178
 30
0.0
 10
17.433121246
 20
13.6406383711
 30
0.0
 10
17.4292997509
 20
13.6236793107
 30
0.0
 10
17.4281467358
 20
13.5981220994
 30
0.0
 10
17.4317845512
 20
13.5736390865
 30
0.0
 10
17.4373964195
 20
13.558355096
 30
0.0
 10
17.4409187028
 20
13.5511788235
 30
0.0
  0
SPLINE
  5
3C5
100
AcDbEntity
  8
02___PRT_ALL_AXES
100
AcDbSpline
 62
7
  6
BYLAYER
 70
0
 71
3
 72
15
 73
11
 74
0
 42
0.0000001
 43
0.0000001
 44
0.0000000001
 40
0.0
 40
0.0
 40
0.0
 40
0.0
 40
0.1734563934
 40
0.3392725583
 40
0.4926163165
 40
0.6299720811
 40
0.7487638761
 40
0.8480145523
 40
0.9296139082
 40
1.0
 40
1.0
 40
1.0
 40
1.0
 10
18.20163477
 20
12.0227724106
 30
0.0
 10
18.2015045526
 20
12.0256774621
 30
0.0
 10
18.2010490104
 20
12.0313529684
 30
0.0
 10
18.1997723492
 20
12.0395206971
 30
0.0
 10
18.1979489998
 20
12.0469650765
 30
0.0
 10
18.1956410567
 20
12.0534458986
 30
0.0
 10
18.1929229102
 20
12.0587732326
 30
0.0
 10
18.1898547563
 20
12.0627972511
 30
0.0
 10
18.186462897
 20
12.0654144361
 30
0.0
 10
18.1838961208
 20
12.066071955
 30
0.0
 10
18.1827161099
 20
12.0660706935
 30
0.0
  0
SPLINE
  5
3C6
100
AcDbEntity
  8
02___PRT_ALL_AXES
100
AcDbSpline
 62
7
  6
BYLAYER
 70
0
 71
3
 72
10
 73
6
 74
0
 42
0.0000001
 43
0.0000001
 44
0.0000000001
 40
0.0
 40
0.0
 40
0.0
 40
0.0
 40
0.5161344746
 40
0.7604943016
 40
1.0
 40
1.0
 40
1.0
 40
1.0
 10
17.36198592
 20
13.3475423765
 30
0.0
 10
17.3610321729
 20
13.3444560498
 30
0.0
 10
17.3603177552
 20
13.3396144457
 30
0.0
 10
17.3612475251
 20
13.3333924051
 30
0.0
 10
17.3623003734
 20
13.3305246047
 30
0.0
 10
17.3629616759
 20
13.3291793669
 30
0.0
  0
SPLINE
  5
3C7
100
AcDbEntity
  8
02___PRT_ALL_AXES
100
AcDbSpline
 62
7
  6
BYLAYER
 70
0
 71
3
 72
11
 73
7
 74
0
 42
0.0000001
 43
0.0000001
 44
0.0000000001
 40
0.0
 40
0.0
 40
0.0
 40
0.0
 40
0.3156806228
 40
0.5821591739
 40
0.8046012074
 40
1.0
 40
1.0
 40
1.0
 40
1.0
 10
18.339312266
 20
12.0982657305
 30
0.0
 10
18.3385409684
 20
12.0998374697
 30
0.0
 10
18.3369357445
 20
12.1026555031
 30
0.0
 10
18.3340478716
 20
12.1061001382
 30
0.0
 10
18.3308918
 20
12.1083172857
 30
0.0
 10
18.3285565222
 20
12.1088587369
 30
0.0
 10
18.3274728258
 20
12.1088575663
 30
0.0
  0
SPLINE
  5
3C8
100
AcDbEntity
  8
0
100
AcDbSpline
 62
7
  6
BYLAYER
 70
0
 71
3
 72
12
 73
8
 74
0
 42
0.0000001
 43
0.0000001
 44
0.0000000001
 40
0.0
 40
0.0
 40
0.0
 40
0.0
 40
0.279885202
 40
0.5429819278
 40
0.7842034481
 40
0.895490064
 40
1.0
 40
1.0
 40
1.0
 40
1.0
 10
17.6070375804
 20
12.2786181312
 30
0.0
 10
17.6142909291
 20
12.2376196672
 30
0.0
 10
17.6308979807
 20
12.1585059928
 30
0.0
 10
17.6618866986
 20
12.0459715141
 30
0.0
 10
17.6918660755
 20
11.9593527989
 30
0.0
 10
17.7177466256
 20
11.896470813
 30
0.0
 10
17.7311899884
 20
11.8673057382
 30
0.0
 10
17.7380389656
 20
11.8533489901
 30
0.0
  0
SPLINE
  5
3C9
100
AcDbEntity
  8
02___PRT_ALL_AXES
100
AcDbSpline
 62
7
  6
BYLAYER
 70
0
 71
3
 72
21
 73
17
 74
0
 42
0.0000001
 43
0.0000001
 44
0.0000000001
 40
0.0
 40
0.0
 40
0.0
 40
0.0
 40
0.0801866115
 40
0.1343893283
 40
0.1980477235
 40
0.2699655022
 40
0.348329046
 40
0.5151616757
 40
0.5987392803
 40
0.6790203582
 40
0.7536786352
 40
0.820721595
 40
0.8786760147
 40
0.9269360318
 40
0.9663150211
 40
1.0
 40
1.0
 40
1.0
 40
1.0
 10
18.4202311769
 20
12.3045063099
 30
0.0
 10
18.4230369274
 20
12.3053356475
 30
0.0
 10
18.4268420245
 20
12.3091172634
 30
0.0
 10
18.4303369914
 20
12.315365047
 30
0.0
 10
18.4328542039
 20
12.3218638155
 30
0.0
 10
18.4348412771
 20
12.3294176993
 30
0.0
 10
18.4367679852
 20
12.3408409239
 30
0.0
 10
18.4373469329
 20
12.3528762291
 30
0.0
 10
18.4366399071
 20
12.3649289036
 30
0.0
 10
18.4354621873
 20
12.3735617036
 30
0.0
 10
18.4336863931
 20
12.3814756275
 30
0.0
 10
18.4313753091
 20
12.3884002034
 30
0.0
 10
18.4286053413
 20
12.3941093907
 30
0.0
 10
18.4254527329
 20
12.3984314095
 30
0.0
 10
18.4219435091
 20
12.4012591432
 30
0.0
 10
18.4192551914
 20
12.4019655058
 30
0.0
 10
18.4180261398
 20
12.4019616515
 30
0.0
  0
SPLINE
  5
3CA
100
AcDbEntity
  8
02___PRT_ALL_AXES
100
AcDbSpline
 62
7
  6
BYLAYER
 70
0
 71
3
 72
11
 73
7
 74
0
 42
0.0000001
 43
0.0000001
 44
0.0000000001
 40
0.0
 40
0.0
 40
0.0
 40
0.0
 40
0.2268632804
 40
0.4650145788
 40
0.722100556
 40
1.0
 40
1.0
 40
1.0
 40
1.0
 10
17.9937830027
 20
13.5425323817
 30
0.0
 10
17.9927046002
 20
13.5447319357
 30
0.0
 10
17.9896871832
 20
13.5488842584
 30
0.0
 10
17.9832323581
 20
13.5534610486
 30
0.0
 10
17.9752648772
 20
13.556244336
 30
0.0
 10
17.969462649
 20
13.556819943
 30
0.0
 10
17.9664618638
 20
13.556819943
 30
0.0
  0
SPLINE
  5
3CB
100
AcDbEntity
  8
02___PRT_ALL_AXES
100
AcDbSpline
 62
7
  6
BYLAYER
 70
0
 71
3
 72
19
 73
15
 74
0
 42
0.0000001
 43
0.0000001
 44
0.0000000001
 40
0.0
 40
0.0
 40
0.0
 40
0.0
 40
0.0533440231
 40
0.1095469655
 40
0.1691887665
 40
0.2324853322
 40
0.3679987391
 40
0.5101117299
 40
0.6498836108
 40
0.779221135
 40
0.8387828776
 40
0.8948654775
 40
0.9481769832
 40
1.0
 40
1.0
 40
1.0
 40
1.0
 10
17.6209991967
 20
13.9737044495
 30
0.0
 10
17.6197476824
 20
13.9751482677
 30
0.0
 10
17.6167883914
 20
13.9777925553
 30
0.0
 10
17.6114340277
 20
13.9807240382
 30
0.0
 10
17.6052601551
 20
13.9826157622
 30
0.0
 10
17.596027141
 20
13.9837094168
 30
0.0
 10
17.583715962
 20
13.982171417
 30
0.0
 10
17.5697568997
 20
13.9763733709
 30
0.0
 10
17.5579240137
 20
13.9673203528
 30
0.0
 10
17.5508485722
 20
13.95762502
 30
0.0
 10
17.5477707633
 20
13.9493540336
 30
0.0
 10
17.5468424348
 20
13.9433247132
 30
0.0
 10
17.5472894794
 20
13.9375137493
 30
0.0
 10
17.548520626
 20
13.9339033434
 30
0.0
 10
17.5493416271
 20
13.9322385229
 30
0.0
  0
SPLINE
  5
3CC
100
AcDbEntity
  8
0
100
AcDbSpline
 62
7
  6
BYLAYER
 70
0
 71
3
 72
9
 73
5
 74
0
 42
0.0000001
 43
0.0000001
 44
0.0000000001
 40
0.0
 40
0.0
 40
0.0
 40
0.0
 40
0.239687449
 40
1.0
 40
1.0
 40
1.0
 40
1.0
 10
16.68187531
 20
11.6404444369
 30
0.0
 10
16.6812919435
 20
11.6407821694
 30
0.0
 10
16.6787859472
 20
11.6420661584
 30
0.0
 10
16.6760333675
 20
11.6428392216
 30
0.0
 10
16.6739219353
 20
11.6431767455
 30
0.0
  0
LINE
  5
3CD
100
AcDbEntity
  8
0
100
AcDbLine
 62
7
  6
BYLAYER
 10
16.6739219353
 20
11.6431767455
 11
16.6692464236
 21
11.643540399
  0
SPLINE
  5
3CE
100
AcDbEntity
  8
0
100
AcDbSpline
 62
7
  6
BYLAYER
 70
0
 71
3
 72
11
 73
7
 74
0
 42
0.0000001
 43
0.0000001
 44
0.0000000001
 40
0.0
 40
0.0
 40
0.0
 40
0.0
 40
0.2268630568
 40
0.4649901318
 40
0.7222804645
 40
1.0
 40
1.0
 40
1.0
 40
1.0
 10
16.6291897168
 20
11.6205463502
 30
0.0
 10
16.6299556354
 20
11.6189917938
 30
0.0
 10
16.6320904951
 20
11.6160553923
 30
0.0
 10
16.6366610453
 20
11.6128201414
 30
0.0
 10
16.6422987611
 20
11.6108560939
 30
0.0
 10
16.646403251
 20
11.6104469885
 30
0.0
 10
16.6485247378
 20
11.6104469885
 30
0.0
  0
SPLINE
  5
3CF
100
AcDbEntity
  8
0
100
AcDbSpline
 62
7
  6
BYLAYER
 70
0
 71
3
 72
11
 73
7
 74
0
 42
0.0000001
 43
0.0000001
 44
0.0000000001
 40
0.0
 40
0.0
 40
0.0
 40
0.0
 40
0.2268630568
 40
0.4649901318
 40
0.7222804645
 40
1.0
 40
1.0
 40
1.0
 40
1.0
 10
15.6057886123
 20
11.6205463502
 30
0.0
 10
15.606554531
 20
11.6189917938
 30
0.0
 10
15.6086893906
 20
11.6160553923
 30
0.0
 10
15.6132599408
 20
11.6128201414
 30
0.0
 10
15.6188976566
 20
11.6108560939
 30
0.0
 10
15.6230021465
 20
11.6104469885
 30
0.0
 10
15.6251236334
 20
11.6104469885
 30
0.0
  0
SPLINE
  5
3D0
100
AcDbEntity
  8
0
100
AcDbSpline
 62
7
  6
BYLAYER
 70
0
 71
3
 72
13
 73
9
 74
0
 42
0.0000001
 43
0.0000001
 44
0.0000000001
 40
0.0
 40
0.0
 40
0.0
 40
0.0
 40
0.2912163349
 40
0.5492268596
 40
0.6681161828
 40
0.7817985693
 40
0.8918394726
 40
1.0
 40
1.0
 40
1.0
 40
1.0
 10
16.9807332927
 20
13.1752929928
 30
0.0
 10
16.9712902696
 20
13.1869909697
 30
0.0
 10
16.9520118696
 20
13.2079482343
 30
0.0
 10
16.9243327933
 20
13.2289609513
 30
0.0
 10
16.9017707446
 20
13.2405904669
 30
0.0
 10
16.8851117898
 20
13.2466839197
 30
0.0
 10
16.8683232585
 20
13.2503577342
 30
0.0
 10
16.8570422074
 20
13.2511771941
 30
0.0
 10
16.8514585328
 20
13.2511759262
 30
0.0
  0
SPLINE
  5
3D1
100
AcDbEntity
  8
0
100
AcDbSpline
 62
7
  6
BYLAYER
 70
0
 71
3
 72
11
 73
7
 74
0
 42
0.0000001
 43
0.0000001
 44
0.0000000001
 40
0.0
 40
0.0
 40
0.0
 40
0.0
 40
0.2817790608
 40
0.5376431225
 40
0.7740861108
 40
1.0
 40
1.0
 40
1.0
 40
1.0
 10
17.1145110548
 20
13.1097672287
 30
0.0
 10
17.1073546178
 20
13.116954951
 30
0.0
 10
17.0927822648
 20
13.129817919
 30
0.0
 10
17.0689794147
 20
13.1445992645
 30
0.0
 10
17.0445501351
 20
13.1536388995
 30
0.0
 10
17.0278458496
 20
13.1556877743
 30
0.0
 10
17.0197138877
 20
13.1556897379
 30
0.0
  0
SPLINE
  5
3D2
100
AcDbEntity
  8
0
100
AcDbSpline
 62
7
  6
BYLAYER
 70
0
 71
3
 72
11
 73
7
 74
0
 42
0.0000001
 43
0.0000001
 44
0.0000000001
 40
0.0
 40
0.0
 40
0.0
 40
0.0
 40
0.2738357582
 40
0.532106256
 40
0.7739187606
 40
1.0
 40
1.0
 40
1.0
 40
1.0
 10
14.6060888635
 20
12.9083840823
 30
0.0
 10
14.6114727214
 20
12.9258062529
 30
0.0
 10
14.6228854096
 20
12.9593780875
 30
0.0
 10
14.6426145885
 20
13.0070338047
 30
0.0
 10
14.664465719
 20
13.0502267622
 30
0.0
 10
14.680991947
 20
13.0767123937
 30
0.0
 10
14.6896610312
 20
13.0890209765
 30
0.0
  0
SPLINE
  5
3D3
100
AcDbEntity
  8
0
100
AcDbSpline
 62
7
  6
BYLAYER
 70
0
 71
3
 72
21
 73
17
 74
0
 42
0.0000001
 43
0.0000001
 44
0.0000000001
 40
0.0
 40
0.0
 40
0.0
 40
0.0
 40
0.0468172794
 40
0.0971868526
 40
0.151215694
 40
0.208790193
 40
0.2696354024
 40
0.3333535142
 40
0.3994497676
 40
0.4673592041
 40
0.6061028812
 40
0.7444382499
 40
0.8118479613
 40
0.8772550027
 40
0.9401462012
 40
1.0
 40
1.0
 40
1.0
 40
1.0
 10
14.6902145764
 20
11.8847682585
 30
0.0
 10
14.6807155753
 20
11.8981889072
 30
0.0
 10
14.6626913146
 20
11.9272666543
 30
0.0
 10
14.639162066
 20
11.9749444115
 30
0.0
 10
14.6181334726
 20
12.0278569573
 30
0.0
 10
14.5996639507
 20
12.0855782839
 30
0.0
 10
14.5838454097
 20
12.1475933642
 30
0.0
 10
14.5707940681
 20
12.2132980215
 30
0.0
 10
14.560620649
 20
12.2820161596
 30
0.0
 10
14.5509567012
 20
12.3773445676
 30
0.0
 10
14.5466807188
 20
12.4985845695
 30
0.0
 10
14.5525363205
 20
12.6195855463
 30
0.0
 10
14.5634705735
 20
12.7142125853
 30
0.0
 10
14.5745500656
 20
12.7820747749
 30
0.0
 10
14.5884765456
 20
12.8466979961
 30
0.0
 10
14.5998825941
 20
12.8883005872
 30
0.0
 10
14.6060888635
 20
12.9083840823
 30
0.0
  0
SPLINE
  5
3D4
100
AcDbEntity
  8
0
100
AcDbSpline
 62
7
  6
BYLAYER
 70
0
 71
3
 72
11
 73
7
 74
0
 42
0.0000001
 43
0.0000001
 44
0.0000000001
 40
0.0
 40
0.0
 40
0.0
 40
0.0
 40
0.2259329353
 40
0.4623781904
 40
0.7182414841
 40
1.0
 40
1.0
 40
1.0
 40
1.0
 10
17.0196819481
 20
11.8188853037
 30
0.0
 10
17.0278127665
 20
11.8188834234
 30
0.0
 10
17.0445143979
 20
11.8209294086
 30
0.0
 10
17.0689431793
 20
11.8299554025
 30
0.0
 10
17.0927420781
 20
11.8447302288
 30
0.0
 10
17.1073162972
 20
11.8575830958
 30
0.0
 10
17.1144718024
 20
11.8647674831
 30
0.0
  0
SPLINE
  5
3D5
100
AcDbEntity
  8
0
100
AcDbSpline
 62
7
  6
BYLAYER
 70
0
 71
3
 72
9
 73
5
 74
0
 42
0.0000001
 43
0.0000001
 44
0.0000000001
 40
0.0
 40
0.0
 40
0.0
 40
0.0
 40
0.521075301
 40
1.0
 40
1.0
 40
1.0
 40
1.0
 10
17.007193458
 20
11.8188447526
 30
0.0
 10
17.0000835086
 20
11.8125885812
 30
0.0
 10
16.9856231213
 20
11.8014565547
 30
0.0
 10
16.9694817899
 20
11.7928551645
 30
0.0
 10
16.9614294823
 20
11.789549444
 30
0.0
  0
SPLINE
  5
3D6
100
AcDbEntity
  8
0
100
AcDbSpline
 62
7
  6
BYLAYER
 70
0
 71
3
 72
9
 73
5
 74
0
 42
0.0000001
 43
0.0000001
 44
0.0000000001
 40
0.0
 40
0.0
 40
0.0
 40
0.0
 40
0.5083834383
 40
1.0
 40
1.0
 40
1.0
 40
1.0
 10
16.9614294823
 20
11.789549444
 30
0.0
 10
16.9544470558
 20
11.7866829428
 30
0.0
 10
16.940180349
 20
11.7822292822
 30
0.0
 10
16.9252960975
 20
11.7806913351
 30
0.0
 10
16.9179971129
 20
11.7806910767
 30
0.0
  0
SPLINE
  5
3D7
100
AcDbEntity
  8
0
100
AcDbSpline
 62
7
  6
BYLAYER
 70
0
 71
3
 72
11
 73
7
 74
0
 42
0.0000001
 43
0.0000001
 44
0.0000000001
 40
0.0
 40
0.0
 40
0.0
 40
0.0
 40
0.2303967439
 40
0.4692158413
 40
0.7238405141
 40
1.0
 40
1.0
 40
1.0
 40
1.0
 10
16.9179971129
 20
13.1938841626
 30
0.0
 10
16.925568992
 20
13.1938847543
 30
0.0
 10
16.9410350735
 20
13.1922205447
 30
0.0
 10
16.9638042545
 20
13.1848432411
 30
0.0
 10
16.9861332565
 20
13.1727055625
 30
0.0
 10
17.0000114505
 20
13.1620218089
 30
0.0
 10
17.0068384945
 20
13.1560416317
 30
0.0
  0
SPLINE
  5
3D8
100
AcDbEntity
  8
0
100
AcDbSpline
 62
7
  6
BYLAYER
 70
0
 71
3
 72
11
 73
7
 74
0
 42
0.0000001
 43
0.0000001
 44
0.0000000001
 40
0.0
 40
0.0
 40
0.0
 40
0.0
 40
0.2241295026
 40
0.4596348241
 40
0.716094387
 40
1.0
 40
1.0
 40
1.0
 40
1.0
 10
16.8514778126
 20
11.7234002143
 30
0.0
 10
16.8612044555
 20
11.7234005383
 30
0.0
 10
16.8812312345
 20
11.72597207
 30
0.0
 10
16.9104406056
 20
11.7373003458
 30
0.0
 10
16.9388125701
 20
11.7557936889
 30
0.0
 10
16.9560878978
 20
11.7718055585
 30
0.0
 10
16.9645618672
 20
11.7807494542
 30
0.0
  0
SPLINE
  5
3D9
100
AcDbEntity
  8
0
100
AcDbSpline
 62
7
  6
BYLAYER
 70
0
 71
3
 72
36
 73
32
 74
0
 42
0.0000001
 43
0.0000001
 44
0.0000000001
 40
0.0
 40
0.0
 40
0.0
 40
0.0
 40
0.0083672407
 40
0.016845853
 40
0.0345240417
 40
0.0537866146
 40
0.0751406851
 40
0.0988928985
 40
0.1251857949
 40
0.1540406117
 40
0.1853876984
 40
0.2190855582
 40
0.2549402863
 40
0.2927143497
 40
0.3321353996
 40
0.4146870144
 40
0.5000079494
 40
0.5853293765
 40
0.6678821317
 40
0.7073044509
 40
0.7450792433
 40
0.7809355682
 40
0.8146349746
 40
0.8459831155
 40
0.874840198
 40
0.9011344579
 40
0.924888024
 40
0.9462441014
 40
0.9655075132
 40
0.9831865678
 40
1.0
 40
1.0
 40
1.0
 40
1.0
 10
14.8731155526
 20
11.7234002143
 30
0.0
 10
14.8682404746
 20
11.7234000519
 30
0.0
 10
14.8584137792
 20
11.724022656
 30
0.0
 10
14.8386109964
 20
11.7277948303
 30
0.0
 10
14.8137207255
 20
11.7375003513
 30
0.0
 10
14.7851720493
 20
11.7562551479
 30
0.0
 10
14.7576557017
 20
11.78195332
 30
0.0
 10
14.731359456
 20
11.8143215938
 30
0.0
 10
14.7064623577
 20
11.8530572812
 30
0.0
 10
14.6831708941
 20
11.8978128329
 30
0.0
 10
14.6616947152
 20
11.9481805619
 30
0.0
 10
14.6422293567
 20
12.003691534
 30
0.0
 10
14.6249621873
 20
12.0638246999
 30
0.0
 10
14.6100582546
 20
12.1280113066
 30
0.0
 10
14.5932746735
 20
12.2195884651
 30
0.0
 10
14.5793371173
 20
12.3397103546
 30
0.0
 10
14.5737647778
 20
12.4872636031
 30
0.0
 10
14.5793326806
 20
12.6348177883
 30
0.0
 10
14.5932689287
 20
12.7549414507
 30
0.0
 10
14.6100486108
 20
12.846521204
 30
0.0
 10
14.6249526796
 20
12.9107099294
 30
0.0
 10
14.6422171727
 20
12.9708461611
 30
0.0
 10
14.661680966
 20
13.0263603531
 30
0.0
 10
14.683157567
 20
13.0767308973
 30
0.0
 10
14.7064459224
 20
13.1214911581
 30
0.0
 10
14.7313426519
 20
13.1602304675
 30
0.0
 10
14.7576403302
 20
13.1926017842
 30
0.0
 10
14.785149303
 20
13.2183072651
 30
0.0
 10
14.8137137942
 20
13.2370626099
 30
0.0
 10
14.8431223169
 20
13.2485593361
 30
0.0
 10
14.8633001173
 20
13.2511737017
 30
0.0
 10
14.8730962728
 20
13.2511759262
 30
0.0
  0
SPLINE
  5
3DA
100
AcDbEntity
  8
0
100
AcDbSpline
 62
7
  6
BYLAYER
 70
0
 71
3
 72
11
 73
7
 74
0
 42
0.0000001
 43
0.0000001
 44
0.0000000001
 40
0.0
 40
0.0
 40
0.0
 40
0.0
 40
0.2750990956
 40
0.536585658
 40
0.7785620274
 40
1.0
 40
1.0
 40
1.0
 40
1.0
 10
15.6258403359
 20
11.6376110631
 30
0.0
 10
15.6236219352
 20
11.6362373206
 30
0.0
 10
15.6195383336
 20
11.6331334227
 30
0.0
 10
15.6146746616
 20
11.6274980418
 30
0.0
 10
15.6114937287
 20
11.6213225766
 30
0.0
 10
15.6106429021
 20
11.6169225987
 30
0.0
 10
15.6106127102
 20
11.6148224849
 30
0.0
  0
SPLINE
  5
3DB
100
AcDbEntity
  8
0
100
AcDbSpline
 62
7
  6
BYLAYER
 70
0
 71
3
 72
12
 73
8
 74
0
 42
0.0000001
 43
0.0000001
 44
0.0000000001
 40
0.0
 40
0.0
 40
0.0
 40
0.0
 40
0.2602480441
 40
0.5285321314
 40
0.6581874519
 40
0.7809625455
 40
1.0
 40
1.0
 40
1.0
 40
1.0
 10
16.6692464236
 20
11.643540399
 30
0.0
 10
16.66496087
 20
11.643540399
 30
0.0
 10
16.6562225698
 20
11.6418097334
 30
0.0
 10
16.6466213301
 20
11.6363822757
 30
0.0
 10
16.6404153015
 20
11.6303938867
 30
0.0
 10
16.6358944126
 20
11.6240645707
 30
0.0
 10
16.6340656637
 20
11.6184290432
 30
0.0
 10
16.6340138146
 20
11.6148224849
 30
0.0
  0
SPLINE
  5
3DC
100
AcDbEntity
  8
0
100
AcDbSpline
 62
7
  6
BYLAYER
 70
0
 71
3
 72
9
 73
5
 74
0
 42
0.0000001
 43
0.0000001
 44
0.0000000001
 40
0.0
 40
0.0
 40
0.0
 40
0.0
 40
0.2418407188
 40
1.0
 40
1.0
 40
1.0
 40
1.0
 10
15.6251236334
 20
11.6104469885
 30
0.0
 10
15.6261812068
 20
11.6104469885
 30
0.0
 10
15.6305526962
 20
11.6106676522
 30
0.0
 10
15.6348724782
 20
11.6117046499
 30
0.0
 10
15.6379774249
 20
11.6128671767
 30
0.0
  0
SPLINE
  5
3DD
100
AcDbEntity
  8
0
100
AcDbSpline
 62
7
  6
BYLAYER
 70
0
 71
3
 72
14
 73
10
 74
0
 42
0.0000001
 43
0.0000001
 44
0.0000000001
 40
0.0
 40
0.0
 40
0.0
 40
0.0
 40
0.269993807
 40
0.4094466673
 40
0.5451394958
 40
0.6729569133
 40
0.7905704427
 40
0.8983629651
 40
1.0
 40
1.0
 40
1.0
 40
1.0
 10
16.6485247378
 20
11.6104469885
 30
0.0
 10
16.6536605286
 20
11.6104469885
 30
0.0
 10
16.6615252436
 20
11.6123069299
 30
0.0
 10
16.6705835147
 20
11.617422745
 30
0.0
 10
16.6764425782
 20
11.6224563869
 30
0.0
 10
16.6808400964
 20
11.6282987505
 30
0.0
 10
16.6834613675
 20
11.6345774931
 30
0.0
 10
16.6840639741
 20
11.6408777945
 30
0.0
 10
16.6829961295
 20
11.6448296541
 30
0.0
 10
16.682141672
 20
11.6465639144
 30
0.0
  0
SPLINE
  5
3DE
100
AcDbEntity
  8
0
100
AcDbSpline
 62
7
  6
BYLAYER
 70
0
 71
3
 72
35
 73
31
 74
0
 42
0.0000001
 43
0.0000001
 44
0.0000000001
 40
0.0
 40
0.0
 40
0.0
 40
0.0
 40
0.0168134968
 40
0.0344919005
 40
0.0537547913
 40
0.075109067
 40
0.0988613945
 40
0.1251547683
 40
0.1540099581
 40
0.185357637
 40
0.219056324
 40
0.2549118374
 40
0.2926869841
 40
0.3321092049
 40
0.4146634756
 40
0.4999874302
 40
0.5853121031
 40
0.6678681609
 40
0.7072921269
 40
0.7450684979
 40
0.7809263586
 40
0.8146272072
 40
0.8459767128
 40
0.8748350532
 40
0.9011304241
 40
0.9248850458
 40
0.9462419844
 40
0.96550618
 40
0.9831859533
 40
1.0
 40
1.0
 40
1.0
 40
1.0
 10
16.8514850648
 20
11.7806910774
 30
0.0
 10
16.8424238423
 20
11.7806899941
 30
0.0
 10
16.8237598018
 20
11.783105424
 30
0.0
 10
16.7965549103
 20
11.7937308788
 30
0.0
 10
16.7701336969
 20
11.8110768905
 30
0.0
 10
16.7446849269
 20
11.8348466732
 30
0.0
 10
16.7203586164
 20
11.8647856202
 30
0.0
 10
16.6973291622
 20
11.9006153469
 30
0.0
 10
16.6757835927
 20
11.9420131532
 30
0.0
 10
16.6559175589
 20
11.9886025666
 30
0.0
 10
16.6379117944
 20
12.0399497341
 30
0.0
 10
16.6219387468
 20
12.0955724582
 30
0.0
 10
16.6081522131
 20
12.1549448989
 30
0.0
 10
16.5926266674
 20
12.2396538473
 30
0.0
 10
16.5797335123
 20
12.3507670289
 30
0.0
 10
16.5745781529
 20
12.4872547016
 30
0.0
 10
16.5797277529
 20
12.6237436558
 30
0.0
 10
16.5926184193
 20
12.7348593497
 30
0.0
 10
16.608139298
 20
12.8195717841
 30
0.0
 10
16.6219254884
 20
12.8789472378
 30
0.0
 10
16.6378950299
 20
12.934574138
 30
0.0
 10
16.655899051
 20
12.9859256134
 30
0.0
 10
16.6757649139
 20
13.0325191863
 30
0.0
 10
16.6973066779
 20
13.0739231989
 30
0.0
 10
16.7203363619
 20
13.1097576818
 30
0.0
 10
16.7446617027
 20
13.1397018618
 30
0.0
 10
16.7701077993
 20
13.1634798373
 30
0.0
 10
16.7965301309
 20
13.1808288888
 30
0.0
 10
16.8237331555
 20
13.1914640245
 30
0.0
 10
16.8423978601
 20
13.193882043
 30
0.0
 10
16.8514593788
 20
13.1938841601
 30
0.0
  0
SPLINE
  5
3DF
100
AcDbEntity
  8
0
100
AcDbSpline
 62
7
  6
BYLAYER
 70
0
 71
3
 72
35
 73
31
 74
0
 42
0.0000001
 43
0.0000001
 44
0.0000000001
 40
0.0
 40
0.0
 40
0.0
 40
0.0
 40
0.0168137174
 40
0.0344926304
 40
0.0537562685
 40
0.075111463
 40
0.0988648199
 40
0.1251592857
 40
0.1540155889
 40
0.1853643704
 40
0.2190641224
 40
0.2549206378
 40
0.292696704
 40
0.332119742
 40
0.414675275
 40
0.4999999059
 40
0.5853245908
 40
0.6678799548
 40
0.7073033102
 40
0.7450788997
 40
0.7809358187
 40
0.8146355818
 40
0.8459838774
 40
0.8748409161
 40
0.901134936
 40
0.9248882164
 40
0.9462439106
 40
0.9655070707
 40
0.9831861574
 40
1.0
 40
1.0
 40
1.0
 40
1.0
 10
16.9179971129
 20
11.7806910767
 30
0.0
 10
16.9089357288
 20
11.7806907558
 30
0.0
 10
16.8902714189
 20
11.7831078629
 30
0.0
 10
16.863066515
 20
11.793735806
 30
0.0
 10
16.8366453833
 20
11.8110843189
 30
0.0
 10
16.8111967698
 20
11.8348566169
 30
0.0
 10
16.786870695
 20
11.8647980882
 30
0.0
 10
16.7638415732
 20
11.9006303314
 30
0.0
 10
16.7422964349
 20
11.9420306144
 30
0.0
 10
16.7224309364
 20
11.9886224341
 30
0.0
 10
16.7044258146
 20
12.0399719061
 30
0.0
 10
16.6884535095
 20
12.0955967997
 30
0.0
 10
16.6746678194
 20
12.1549712449
 30
0.0
 10
16.6591435712
 20
12.239682485
 30
0.0
 10
16.6462522016
 20
12.3507978961
 30
0.0
 10
16.6410991939
 20
12.4872873543
 30
0.0
 10
16.6462513227
 20
12.6237768564
 30
0.0
 10
16.6591442196
 20
12.734892129
 30
0.0
 10
16.6746669281
 20
12.8196034994
 30
0.0
 10
16.6884544219
 20
12.878977656
 30
0.0
 10
16.7044252291
 20
12.9346029045
 30
0.0
 10
16.722430461
 20
12.9859523824
 30
0.0
 10
16.7422974742
 20
13.0325436231
 30
0.0
 10
16.76384031
 20
13.0739449888
 30
0.0
 10
16.7868709835
 20
13.1097765313
 30
0.0
 10
16.8111972362
 20
13.1397174961
 30
0.0
 10
16.8366441665
 20
13.1634920028
 30
0.0
 10
16.8630672678
 20
13.1808373125
 30
0.0
 10
16.8902709551
 20
13.1914683948
 30
0.0
 10
16.9089356614
 20
13.1938834546
 30
0.0
 10
16.9179971129
 20
13.1938841626
 30
0.0
  0
SPLINE
  5
3E0
100
AcDbEntity
  8
0
100
AcDbSpline
 62
7
  6
BYLAYER
 70
0
 71
3
 72
9
 73
5
 74
0
 42
0.0000001
 43
0.0000001
 44
0.0000000001
 40
0.0
 40
0.0
 40
0.0
 40
0.0
 40
0.4979482634
 40
1.0
 40
1.0
 40
1.0
 40
1.0
 10
15.9440944695
 20
12.0069303606
 30
0.0
 10
15.9490243844
 20
12.0069303606
 30
0.0
 10
15.9589592434
 20
12.0045002377
 30
0.0
 10
15.9672849686
 20
11.9986657875
 30
0.0
 10
15.9706786201
 20
11.995034065
 30
0.0
  0
SPLINE
  5
3E1
100
AcDbEntity
  8
0
100
AcDbSpline
 62
7
  6
BYLAYER
 70
0
 71
3
 72
11
 73
7
 74
0
 42
0.0000001
 43
0.0000001
 44
0.0000000001
 40
0.0
 40
0.0
 40
0.0
 40
0.0
 40
0.2253107825
 40
0.4611430973
 40
0.7182430584
 40
1.0
 40
1.0
 40
1.0
 40
1.0
 10
15.7205948927
 20
11.9954275784
 30
0.0
 10
15.7211170305
 20
11.9971171942
 30
0.0
 10
15.7228638137
 20
12.0004024281
 30
0.0
 10
15.7272270555
 20
12.0041472458
 30
0.0
 10
15.732948374
 20
12.0064561154
 30
0.0
 10
15.7372027513
 20
12.0069303606
 30
0.0
 10
15.7394142486
 20
12.0069303606
 30
0.0
  0
SPLINE
  5
3E2
100
AcDbEntity
  8
0
100
AcDbSpline
 62
7
  6
BYLAYER
 70
0
 71
3
 72
11
 73
7
 74
0
 42
0.0000001
 43
0.0000001
 44
0.0000000001
 40
0.0
 40
0.0
 40
0.0
 40
0.0
 40
0.2785286936
 40
0.5385387596
 40
0.7791660839
 40
1.0
 40
1.0
 40
1.0
 40
1.0
 10
15.9782696857
 20
11.9808681994
 30
0.0
 10
15.9839724434
 20
11.9643307351
 30
0.0
 10
15.9958581333
 20
11.9326407793
 30
0.0
 10
16.0158989186
 20
11.8879563803
 30
0.0
 10
16.0374095234
 20
11.8480272373
 30
0.0
 10
16.0533094427
 20
11.8237342593
 30
0.0
 10
16.061513944
 20
11.8125516308
 30
0.0
  0
SPLINE
  5
3E3
100
AcDbEntity
  8
0
100
AcDbSpline
 62
7
  6
BYLAYER
 70
0
 71
3
 72
10
 73
6
 74
0
 42
0.0000001
 43
0.0000001
 44
0.0000000001
 40
0.0
 40
0.0
 40
0.0
 40
0.0
 40
0.5444086196
 40
0.7781108796
 40
1.0
 40
1.0
 40
1.0
 40
1.0
 10
16.061513944
 20
11.8125516308
 30
0.0
 10
16.0622229384
 20
11.8115852806
 30
0.0
 10
16.0630826272
 20
11.8100345866
 30
0.0
 10
16.0633866403
 20
11.8078308185
 30
0.0
 10
16.0632323843
 20
11.8068221707
 30
0.0
 10
16.0630881529
 20
11.8063554484
 30
0.0
  0
SPLINE
  5
3E4
100
AcDbEntity
  8
0
100
AcDbSpline
 62
7
  6
BYLAYER
 70
0
 71
3
 72
36
 73
32
 74
0
 42
0.0000001
 43
0.0000001
 44
0.0000000001
 40
0.0
 40
0.0
 40
0.0
 40
0.0
 40
0.0168134322
 40
0.0344924868
 40
0.0537558986
 40
0.075111976
 40
0.0988655421
 40
0.125159802
 40
0.1540168845
 40
0.1853650254
 40
0.2190644318
 40
0.2549207567
 40
0.2926955491
 40
0.3321178683
 40
0.4146706235
 40
0.4999920506
 40
0.5853129856
 40
0.6678646004
 40
0.7072856503
 40
0.7450597137
 40
0.7809144418
 40
0.8146123016
 40
0.8459593883
 40
0.8748142051
 40
0.9011071015
 40
0.9248593149
 40
0.9462133854
 40
0.9654759583
 40
0.983154147
 40
0.9916327593
 40
1.0
 40
1.0
 40
1.0
 40
1.0
 10
16.8514585328
 20
13.2511759262
 30
0.0
 10
16.8416623774
 20
13.2511737017
 30
0.0
 10
16.8214845769
 20
13.2485593361
 30
0.0
 10
16.7920760542
 20
13.2370626099
 30
0.0
 10
16.7635115631
 20
13.2183072651
 30
0.0
 10
16.7360025903
 20
13.1926017842
 30
0.0
 10
16.7097049119
 20
13.1602304675
 30
0.0
 10
16.6848081824
 20
13.1214911581
 30
0.0
 10
16.661519827
 20
13.0767308973
 30
0.0
 10
16.640043226
 20
13.0263603531
 30
0.0
 10
16.6205794328
 20
12.9708461611
 30
0.0
 10
16.6033149397
 20
12.9107099294
 30
0.0
 10
16.5884108708
 20
12.846521204
 30
0.0
 10
16.5716311888
 20
12.7549414507
 30
0.0
 10
16.5576949406
 20
12.6348177883
 30
0.0
 10
16.5521270379
 20
12.4872636031
 30
0.0
 10
16.5576993773
 20
12.3397103546
 30
0.0
 10
16.5716369335
 20
12.2195884651
 30
0.0
 10
16.5884205147
 20
12.1280113066
 30
0.0
 10
16.6033244473
 20
12.0638246999
 30
0.0
 10
16.6205916167
 20
12.003691534
 30
0.0
 10
16.6400569753
 20
11.9481805619
 30
0.0
 10
16.6615331541
 20
11.8978128329
 30
0.0
 10
16.6848246177
 20
11.8530572812
 30
0.0
 10
16.709721716
 20
11.8143215938
 30
0.0
 10
16.7360179617
 20
11.78195332
 30
0.0
 10
16.7635343094
 20
11.7562551479
 30
0.0
 10
16.7920829855
 20
11.7375003513
 30
0.0
 10
16.8169732564
 20
11.7277948303
 30
0.0
 10
16.8367760392
 20
11.724022656
 30
0.0
 10
16.8466027346
 20
11.7234000519
 30
0.0
 10
16.8514778126
 20
11.7234002143
 30
0.0
  0
SPLINE
  5
3E5
100
AcDbEntity
  8
0
100
AcDbSpline
 62
7
  6
BYLAYER
 70
0
 71
3
 72
35
 73
31
 74
0
 42
0.0000001
 43
0.0000001
 44
0.0000000001
 40
0.0
 40
0.0
 40
0.0
 40
0.0
 40
0.0168135603
 40
0.0344915285
 40
0.053754033
 40
0.0751079925
 40
0.0988594375
 40
0.1251525374
 40
0.1540072595
 40
0.1853543262
 40
0.2190528895
 40
0.2549079693
 40
0.2926829654
 40
0.3321051491
 40
0.4146593784
 40
0.4999835819
 40
0.5853087177
 40
0.6678653579
 40
0.7072897108
 40
0.7450663898
 40
0.7809245684
 40
0.8146257735
 40
0.8459755488
 40
0.8748341829
 40
0.901129773
 40
0.9248846159
 40
0.9462416927
 40
0.9655060062
 40
0.9831858978
 40
1.0
 40
1.0
 40
1.0
 40
1.0
 10
17.0197138877
 20
13.1556897379
 30
0.0
 10
17.0111423852
 20
13.1556918077
 30
0.0
 10
16.9934873246
 20
13.153406495
 30
0.0
 10
16.9677521272
 20
13.1433587772
 30
0.0
 10
16.9427585995
 20
13.1269514773
 30
0.0
 10
16.9186856865
 20
13.1044673686
 30
0.0
 10
16.8956726744
 20
13.076148791
 30
0.0
 10
16.8738883143
 20
13.0422563002
 30
0.0
 10
16.8535068105
 20
13.0030970906
 30
0.0
 10
16.8347134611
 20
12.959026887
 30
0.0
 10
16.8176811554
 20
12.9104555309
 30
0.0
 10
16.8025704513
 20
12.8578398471
 30
0.0
 10
16.7895286611
 20
12.8016768449
 30
0.0
 10
16.7748419392
 20
12.7215465345
 30
0.0
 10
16.7626446109
 20
12.6164389758
 30
0.0
 10
16.7577670473
 20
12.4873280372
 30
0.0
 10
16.7626376938
 20
12.358215514
 30
0.0
 10
16.7748314248
 20
12.2531047905
 30
0.0
 10
16.7895128879
 20
12.1729702403
 30
0.0
 10
16.8025539327
 20
12.1168034484
 30
0.0
 10
16.8176602292
 20
12.0641825945
 30
0.0
 10
16.8346909864
 20
12.0156060571
 30
0.0
 10
16.8534831903
 20
11.9715303565
 30
0.0
 10
16.8738605431
 20
11.9323636978
 30
0.0
 10
16.8956456115
 20
11.8984656756
 30
0.0
 10
16.9186561488
 20
11.8701395486
 30
0.0
 10
16.942727049
 20
11.8476465275
 30
0.0
 10
16.9677213824
 20
11.831235057
 30
0.0
 10
16.9934541315
 20
11.8211742965
 30
0.0
 10
17.0111101694
 20
11.8188872859
 30
0.0
 10
17.0196819481
 20
11.8188853037
 30
0.0
  0
SPLINE
  5
3E6
100
AcDbEntity
  8
0
100
AcDbSpline
 62
7
  6
BYLAYER
 70
0
 71
3
 72
35
 73
31
 74
0
 42
0.0000001
 43
0.0000001
 44
0.0000000001
 40
0.0
 40
0.0
 40
0.0
 40
0.0
 40
0.0168138236
 40
0.0344929375
 40
0.0537560929
 40
0.0751117645
 40
0.0988650634
 40
0.1251590614
 40
0.154016118
 40
0.1853643785
 40
0.2190641733
 40
0.2549210719
 40
0.2926966277
 40
0.332120034
 40
0.4146753636
 40
0.5000000313
 40
0.5853246395
 40
0.667880127
 40
0.7073032396
 40
0.7450793458
 40
0.7809356992
 40
0.8146356769
 40
0.8459842662
 40
0.8748405838
 40
0.9011353004
 40
0.9248883158
 40
0.9462437119
 40
0.9655074
 40
0.9831861616
 40
1.0
 40
1.0
 40
1.0
 40
1.0
 10
16.9531765259
 20
11.8188853007
 30
0.0
 10
16.9446048925
 20
11.8188859601
 30
0.0
 10
16.9269490322
 20
11.8211701463
 30
0.0
 10
16.9012159048
 20
11.8312269029
 30
0.0
 10
16.8762210688
 20
11.847634545
 30
0.0
 10
16.8521495839
 20
11.8701238909
 30
0.0
 10
16.829138357
 20
11.8984464776
 30
0.0
 10
16.8073524964
 20
11.9323411287
 30
0.0
 10
16.7869742362
 20
11.9715046115
 30
0.0
 10
16.7681810074
 20
12.015577364
 30
0.0
 10
16.7511491257
 20
12.0641512169
 30
0.0
 10
16.7360416006
 20
12.1167696745
 30
0.0
 10
16.7229992408
 20
12.1729343852
 30
0.0
 10
16.7083158591
 20
12.2530667994
 30
0.0
 10
16.6961196496
 20
12.358175799
 30
0.0
 10
16.6912459768
 20
12.4872874539
 30
0.0
 10
16.6961204998
 20
12.616399062
 30
0.0
 10
16.7083153162
 20
12.7215081903
 30
0.0
 10
16.7230000683
 20
12.8016405339
 30
0.0
 10
16.7360405066
 20
12.857805557
 30
0.0
 10
16.7511499406
 20
12.9104235933
 30
0.0
 10
16.7681810673
 20
12.9589976105
 30
0.0
 10
16.7869733462
 20
13.0030707544
 30
0.0
 10
16.8073538864
 20
13.0422331562
 30
0.0
 10
16.8291373962
 20
13.0761290571
 30
0.0
 10
16.8521496691
 20
13.1044512288
 30
0.0
 10
16.8762219342
 20
13.1269391012
 30
0.0
 10
16.9012149055
 20
13.1433503312
 30
0.0
 10
16.92694967
 20
13.1534021812
 30
0.0
 10
16.944604885
 20
13.1556904323
 30
0.0
 10
16.9531765259
 20
13.1556897401
 30
0.0
  0
SPLINE
  5
3E7
100
AcDbEntity
  8
0
100
AcDbSpline
 62
7
  6
BYLAYER
 70
0
 71
3
 72
11
 73
7
 74
0
 42
0.0000001
 43
0.0000001
 44
0.0000000001
 40
0.0
 40
0.0
 40
0.0
 40
0.0
 40
0.2268630568
 40
0.4649901318
 40
0.7222804645
 40
1.0
 40
1.0
 40
1.0
 40
1.0
 10
16.682141672
 20
11.6465639144
 30
0.0
 10
16.6813757533
 20
11.6481184708
 30
0.0
 10
16.6792408937
 20
11.6510548722
 30
0.0
 10
16.6746703435
 20
11.6542901232
 30
0.0
 10
16.6690326276
 20
11.6562541707
 30
0.0
 10
16.6649281377
 20
11.6566632761
 30
0.0
 10
16.6628066509
 20
11.6566632761
 30
0.0
  0
SPLINE
  5
3E8
100
AcDbEntity
  8
0
100
AcDbSpline
 62
7
  6
BYLAYER
 70
0
 71
3
 72
11
 73
7
 74
0
 42
0.0000001
 43
0.0000001
 44
0.0000000001
 40
0.0
 40
0.0
 40
0.0
 40
0.0
 40
0.2849581514
 40
0.5467948004
 40
0.7824106081
 40
1.0
 40
1.0
 40
1.0
 40
1.0
 10
15.6160411797
 20
11.6484079426
 30
0.0
 10
15.6136402368
 20
11.646554989
 30
0.0
 10
15.6094220833
 20
11.6424416434
 30
0.0
 10
15.6051726927
 20
11.6351416991
 30
0.0
 10
15.6036524077
 20
11.6275092187
 30
0.0
 10
15.6047651133
 20
11.6226237078
 30
0.0
 10
15.6057886123
 20
11.6205463502
 30
0.0
  0
SPLINE
  5
3E9
100
AcDbEntity
  8
0
100
AcDbSpline
 62
7
  6
BYLAYER
 70
0
 71
3
 72
14
 73
10
 74
0
 42
0.0000001
 43
0.0000001
 44
0.0000000001
 40
0.0
 40
0.0
 40
0.0
 40
0.0
 40
0.269993807
 40
0.4094466673
 40
0.5451394958
 40
0.6729569133
 40
0.7905704427
 40
0.8983629651
 40
1.0
 40
1.0
 40
1.0
 40
1.0
 10
16.6628066509
 20
11.6566632761
 30
0.0
 10
16.6576708601
 20
11.6566632761
 30
0.0
 10
16.6498061451
 20
11.6548033347
 30
0.0
 10
16.640747874
 20
11.6496875196
 30
0.0
 10
16.6348888105
 20
11.6446538777
 30
0.0
 10
16.6304912923
 20
11.6388115141
 30
0.0
 10
16.6278700212
 20
11.6325327715
 30
0.0
 10
16.6272674147
 20
11.6262324701
 30
0.0
 10
16.6283352592
 20
11.6222806105
 30
0.0
 10
16.6291897168
 20
11.6205463502
 30
0.0
  0
ELLIPSE
  5
3EA
100
AcDbEntity
  8
0
100
AcDbEllipse
 62
7
  6
BYLAYER
 10
4.9027777778
 20
11.8804971419
 30
0.0
 11
0.0
 21
0.0307997705
 31
0.0
 40
0.9018826229
 41
0.0
 42
1.5707963268
  0
ELLIPSE
  5
3EB
100
AcDbEntity
  8
0
100
AcDbEllipse
 62
7
  6
BYLAYER
 10
5.125
 20
11.8804971419
 30
0.0
 11
-0.0
 21
0.0307997705
 31
0.0
 40
0.9018826229
 41
-1.5707963268
 42
0.0
  0
ELLIPSE
  5
3EC
100
AcDbEntity
  8
0
100
AcDbEllipse
 62
7
  6
BYLAYER
 10
15.7279452883
 20
11.9251299632
 30
0.0
 11
-0.0016455488
 21
0.041380759
 31
0.0
 40
0.6174930956
 41
-0.0245503198
 42
1.0513137905
  0
ELLIPSE
  5
3ED
100
AcDbEntity
  8
0
100
AcDbEllipse
 62
7
  6
BYLAYER
 10
15.9326255091
 20
11.9251299632
 30
0.0
 11
-0.0016455488
 21
0.041380759
 31
0.0
 40
0.6174930956
 41
-1.5953466466
 42
-0.0245503198
  0
ELLIPSE
  5
3EE
100
AcDbEntity
  8
0
100
AcDbEllipse
 62
7
  6
BYLAYER
 10
15.942803489
 20
11.5111976374
 30
0.0
 11
-0.0016455488
 21
0.041380759
 31
0.0
 40
0.6174930956
 41
-2.0902788631
 42
-1.5953466466
  0
ENDSEC
  0
SECTION
  2
OBJECTS
  0
DICTIONARY
  5
C
100
AcDbDictionary
280
0
281
1
  3
ACAD_GROUP
350
D
  3
ACAD_MLINESTYLE
350
17
  3
ACAD_LAYOUT
350
1A
  3
ACAD_PLOTSETTINGS
350
19
  3
ACAD_PLOTSTYLENAME
350
E
  0
DICTIONARY
  5
D
102
{ACAD_REACTORS
330
C
102
}
100
AcDbDictionary
280
0
281
1
  0
ACDBDICTIONARYWDFLT
  5
E
102
{ACAD_REACTORS
330
C
102
}
100
AcDbDictionary
281
1
  3
Normal
350
F
100
AcDbDictionaryWithDefault
340
F
  0
DICTIONARY
  5
17
102
{ACAD_REACTORS
330
C
102
}
100
AcDbDictionary
280
0
281
1
  3
Standard
350
18
  0
DICTIONARY
  5
19
102
{ACAD_REACTORS
330
C
102
}
100
AcDbDictionary
281
1
  0
DICTIONARY
  5
1A
102
{ACAD_REACTORS
330
C
102
}
100
AcDbDictionary
281
1
  3
Model
350
3EF
  3
Layout1
350
3F0
  0
ACDBPLACEHOLDER
  5
F
102
{ACAD_REACTORS
330
E
102
}
  0
MLINESTYLE
  5
18
102
{ACAD_REACTORS
330
17
102
}
100
AcDbMlineStyle
  2
STANDARD
 70
0
  3

 62
256
 51
90.0
 52
90.0
 71
2
 49
0.5
 62
256
  6
BYLAYER
 49
-0.5
 62
256
  6
BYLAYER
  0
LAYOUT
  5
3EF
102
{ACAD_REACTORS
330
1A
102
}
100
AcDbPlotSettings
  1

  2
none_device
  4
ANSI_C_(22.00_x_17.00_Inches)
  6

 40
0.0
 41
0.0
 42
0.0
 43
0.0
 44
558.8
 45
431.8
 46
0.0
 47
0.0
 48
0.0
 49
0.0
140
0.0
141
0.0
142
1.0
143
1.0
 70
1024
 72
0
 73
0
 74
0
  7

 75
0
147
1.0
148
0.0
149
0.0
100
AcDbLayout
  1
Model
 70
0
 71
0
 10
0.0
 20
0.0
 11
22.0
 21
17.0
 12
0.0
 22
0.0
 32
0.0
 14
0.0
 24
0.0
 34
0.0
 15
0.0
 25
0.0
 35
0.0
146
0.0
 13
0.0
 23
0.0
 33
0.0
 16
1.0
 26
0.0
 36
0.0
 17
0.0
 27
1.0
 37
0.0
 76
0
330
218
345
0
346
0
  0
LAYOUT
  5
3F0
102
{ACAD_REACTORS
330
1A
102
}
100
AcDbPlotSettings
  1

  2
none_device
  4
ANSI_C_(22.00_x_17.00_Inches)
  6

 40
0.0
 41
0.0
 42
0.0
 43
0.0
 44
558.8
 45
431.8
 46
0.0
 47
0.0
 48
0.0
 49
0.0
140
0.0
141
0.0
142
1.0
143
1.0
 70
0
 72
0
 73
0
 74
0
  7

 75
0
147
1.0
148
0.0
149
0.0
100
AcDbLayout
  1
Layout1
 70
0
 71
1
 10
0.0
 20
0.0
 11
22.0
 21
17.0
 12
0.0
 22
0.0
 32
0.0
 14
0.0
 24
0.0
 34
0.0
 15
0.0
 25
0.0
 35
0.0
146
0.0
 13
0.0
 23
0.0
 33
0.0
 16
1.0
 26
0.0
 36
0.0
 17
0.0
 27
1.0
 37
0.0
 76
0
330
219
345
0
346
0
  0
ENDSEC
  0
EOF
